ISO-10303-21;
HEADER;
/* Generated by software containing ST-Developer
 * from STEP Tools, Inc. (www.steptools.com) 
 */

FILE_DESCRIPTION(
/* description */ (''),
/* implementation_level */ '2;1');

FILE_NAME(
/* name */ 
'C:/Users/thier/Documents/moteur KNSB/upper casting def v2.step',
/* time_stamp */ '2020-12-31T17:53:35+01:00',
/* author */ (''),
/* organization */ (''),
/* preprocessor_version */ 'ST-DEVELOPER v18.1',
/* originating_system */ 'Autodesk Translation Framework v9.7.1.1290',
/* authorisation */ '');

FILE_SCHEMA (('AUTOMOTIVE_DESIGN { 1 0 10303 214 3 1 1 }'));
ENDSEC;

DATA;
#10=MECHANICAL_DESIGN_GEOMETRIC_PRESENTATION_REPRESENTATION('',(#13),#245);
#11=SHAPE_REPRESENTATION_RELATIONSHIP('SRR','None',#252,#12);
#12=ADVANCED_BREP_SHAPE_REPRESENTATION('',(#14),#244);
#13=STYLED_ITEM('',(#261),#14);
#14=MANIFOLD_SOLID_BREP('Corps1',#132);
#15=CYLINDRICAL_SURFACE('',#151,6.2);
#16=CYLINDRICAL_SURFACE('',#156,18.);
#17=CYLINDRICAL_SURFACE('',#161,15.7);
#18=FACE_BOUND('',#35,.T.);
#19=FACE_BOUND('',#40,.T.);
#20=FACE_BOUND('',#44,.T.);
#21=PLANE('',#149);
#22=PLANE('',#158);
#23=PLANE('',#163);
#24=FACE_OUTER_BOUND('',#33,.T.);
#25=FACE_OUTER_BOUND('',#34,.T.);
#26=FACE_OUTER_BOUND('',#36,.T.);
#27=FACE_OUTER_BOUND('',#37,.T.);
#28=FACE_OUTER_BOUND('',#38,.T.);
#29=FACE_OUTER_BOUND('',#39,.T.);
#30=FACE_OUTER_BOUND('',#41,.T.);
#31=FACE_OUTER_BOUND('',#42,.T.);
#32=FACE_OUTER_BOUND('',#43,.T.);
#33=EDGE_LOOP('',(#90,#91,#92,#93));
#34=EDGE_LOOP('',(#94));
#35=EDGE_LOOP('',(#95));
#36=EDGE_LOOP('',(#96,#97,#98,#99));
#37=EDGE_LOOP('',(#100,#101,#102,#103));
#38=EDGE_LOOP('',(#104,#105,#106,#107));
#39=EDGE_LOOP('',(#108));
#40=EDGE_LOOP('',(#109));
#41=EDGE_LOOP('',(#110,#111,#112,#113));
#42=EDGE_LOOP('',(#114,#115,#116,#117));
#43=EDGE_LOOP('',(#118));
#44=EDGE_LOOP('',(#119));
#45=LINE('',#213,#51);
#46=LINE('',#221,#52);
#47=LINE('',#226,#53);
#48=LINE('',#230,#54);
#49=LINE('',#236,#55);
#50=LINE('',#240,#56);
#51=VECTOR('',#170,6.45);
#52=VECTOR('',#181,6.2);
#53=VECTOR('',#186,17.75);
#54=VECTOR('',#191,18.);
#55=VECTOR('',#200,17.75);
#56=VECTOR('',#205,15.7);
#57=CIRCLE('',#147,6.7);
#58=CIRCLE('',#148,6.2);
#59=CIRCLE('',#150,17.5);
#60=CIRCLE('',#152,6.2);
#61=CIRCLE('',#154,17.5);
#62=CIRCLE('',#155,18.);
#63=CIRCLE('',#157,18.);
#64=CIRCLE('',#159,15.7);
#65=CIRCLE('',#162,15.7);
#66=VERTEX_POINT('',#210);
#67=VERTEX_POINT('',#212);
#68=VERTEX_POINT('',#216);
#69=VERTEX_POINT('',#219);
#70=VERTEX_POINT('',#223);
#71=VERTEX_POINT('',#225);
#72=VERTEX_POINT('',#229);
#73=VERTEX_POINT('',#233);
#74=VERTEX_POINT('',#238);
#75=EDGE_CURVE('',#66,#66,#57,.T.);
#76=EDGE_CURVE('',#66,#67,#45,.T.);
#77=EDGE_CURVE('',#67,#67,#58,.T.);
#78=EDGE_CURVE('',#68,#68,#59,.T.);
#79=EDGE_CURVE('',#69,#69,#60,.T.);
#80=EDGE_CURVE('',#69,#67,#46,.T.);
#81=EDGE_CURVE('',#70,#70,#61,.T.);
#82=EDGE_CURVE('',#70,#71,#47,.T.);
#83=EDGE_CURVE('',#71,#71,#62,.T.);
#84=EDGE_CURVE('',#71,#72,#48,.T.);
#85=EDGE_CURVE('',#72,#72,#63,.T.);
#86=EDGE_CURVE('',#73,#73,#64,.T.);
#87=EDGE_CURVE('',#72,#68,#49,.T.);
#88=EDGE_CURVE('',#74,#74,#65,.T.);
#89=EDGE_CURVE('',#74,#73,#50,.T.);
#90=ORIENTED_EDGE('',*,*,#75,.T.);
#91=ORIENTED_EDGE('',*,*,#76,.T.);
#92=ORIENTED_EDGE('',*,*,#77,.T.);
#93=ORIENTED_EDGE('',*,*,#76,.F.);
#94=ORIENTED_EDGE('',*,*,#78,.F.);
#95=ORIENTED_EDGE('',*,*,#75,.F.);
#96=ORIENTED_EDGE('',*,*,#79,.F.);
#97=ORIENTED_EDGE('',*,*,#80,.T.);
#98=ORIENTED_EDGE('',*,*,#77,.F.);
#99=ORIENTED_EDGE('',*,*,#80,.F.);
#100=ORIENTED_EDGE('',*,*,#81,.T.);
#101=ORIENTED_EDGE('',*,*,#82,.T.);
#102=ORIENTED_EDGE('',*,*,#83,.T.);
#103=ORIENTED_EDGE('',*,*,#82,.F.);
#104=ORIENTED_EDGE('',*,*,#83,.F.);
#105=ORIENTED_EDGE('',*,*,#84,.T.);
#106=ORIENTED_EDGE('',*,*,#85,.F.);
#107=ORIENTED_EDGE('',*,*,#84,.F.);
#108=ORIENTED_EDGE('',*,*,#81,.F.);
#109=ORIENTED_EDGE('',*,*,#86,.T.);
#110=ORIENTED_EDGE('',*,*,#85,.T.);
#111=ORIENTED_EDGE('',*,*,#87,.T.);
#112=ORIENTED_EDGE('',*,*,#78,.T.);
#113=ORIENTED_EDGE('',*,*,#87,.F.);
#114=ORIENTED_EDGE('',*,*,#88,.F.);
#115=ORIENTED_EDGE('',*,*,#89,.T.);
#116=ORIENTED_EDGE('',*,*,#86,.F.);
#117=ORIENTED_EDGE('',*,*,#89,.F.);
#118=ORIENTED_EDGE('',*,*,#88,.T.);
#119=ORIENTED_EDGE('',*,*,#79,.T.);
#120=CONICAL_SURFACE('',#146,6.45,0.785398163397451);
#121=CONICAL_SURFACE('',#153,17.75,0.785398163397451);
#122=CONICAL_SURFACE('',#160,17.75,0.785398163397449);
#123=ADVANCED_FACE('',(#24),#120,.F.);
#124=ADVANCED_FACE('',(#25,#18),#21,.F.);
#125=ADVANCED_FACE('',(#26),#15,.F.);
#126=ADVANCED_FACE('',(#27),#121,.T.);
#127=ADVANCED_FACE('',(#28),#16,.T.);
#128=ADVANCED_FACE('',(#29,#19),#22,.T.);
#129=ADVANCED_FACE('',(#30),#122,.T.);
#130=ADVANCED_FACE('',(#31),#17,.T.);
#131=ADVANCED_FACE('',(#32,#20),#23,.T.);
#132=CLOSED_SHELL('',(#123,#124,#125,#126,#127,#128,#129,#130,#131));
#133=DERIVED_UNIT_ELEMENT(#135,1.);
#134=DERIVED_UNIT_ELEMENT(#247,-3.);
#135=(
MASS_UNIT()
NAMED_UNIT(*)
SI_UNIT(.KILO.,.GRAM.)
);
#136=DERIVED_UNIT((#133,#134));
#137=MEASURE_REPRESENTATION_ITEM('density measure',
POSITIVE_RATIO_MEASURE(7850.),#136);
#138=PROPERTY_DEFINITION_REPRESENTATION(#143,#140);
#139=PROPERTY_DEFINITION_REPRESENTATION(#144,#141);
#140=REPRESENTATION('material name',(#142),#244);
#141=REPRESENTATION('density',(#137),#244);
#142=DESCRIPTIVE_REPRESENTATION_ITEM('Acier','Acier');
#143=PROPERTY_DEFINITION('material property','material name',#254);
#144=PROPERTY_DEFINITION('material property','density of part',#254);
#145=AXIS2_PLACEMENT_3D('placement',#208,#164,#165);
#146=AXIS2_PLACEMENT_3D('',#209,#166,#167);
#147=AXIS2_PLACEMENT_3D('',#211,#168,#169);
#148=AXIS2_PLACEMENT_3D('',#214,#171,#172);
#149=AXIS2_PLACEMENT_3D('',#215,#173,#174);
#150=AXIS2_PLACEMENT_3D('',#217,#175,#176);
#151=AXIS2_PLACEMENT_3D('',#218,#177,#178);
#152=AXIS2_PLACEMENT_3D('',#220,#179,#180);
#153=AXIS2_PLACEMENT_3D('',#222,#182,#183);
#154=AXIS2_PLACEMENT_3D('',#224,#184,#185);
#155=AXIS2_PLACEMENT_3D('',#227,#187,#188);
#156=AXIS2_PLACEMENT_3D('',#228,#189,#190);
#157=AXIS2_PLACEMENT_3D('',#231,#192,#193);
#158=AXIS2_PLACEMENT_3D('',#232,#194,#195);
#159=AXIS2_PLACEMENT_3D('',#234,#196,#197);
#160=AXIS2_PLACEMENT_3D('',#235,#198,#199);
#161=AXIS2_PLACEMENT_3D('',#237,#201,#202);
#162=AXIS2_PLACEMENT_3D('',#239,#203,#204);
#163=AXIS2_PLACEMENT_3D('',#241,#206,#207);
#164=DIRECTION('axis',(0.,0.,1.));
#165=DIRECTION('refdir',(1.,0.,0.));
#166=DIRECTION('center_axis',(0.,0.,-1.));
#167=DIRECTION('ref_axis',(-1.,0.,0.));
#168=DIRECTION('center_axis',(0.,0.,-1.));
#169=DIRECTION('ref_axis',(-1.,0.,0.));
#170=DIRECTION('',(-0.707106781186549,8.65956056235495E-17,0.707106781186546));
#171=DIRECTION('center_axis',(0.,0.,1.));
#172=DIRECTION('ref_axis',(-1.,0.,0.));
#173=DIRECTION('center_axis',(0.,0.,1.));
#174=DIRECTION('ref_axis',(1.,0.,0.));
#175=DIRECTION('center_axis',(0.,0.,1.));
#176=DIRECTION('ref_axis',(1.,0.,0.));
#177=DIRECTION('center_axis',(0.,0.,-1.));
#178=DIRECTION('ref_axis',(-1.,0.,0.));
#179=DIRECTION('center_axis',(0.,0.,-1.));
#180=DIRECTION('ref_axis',(-1.,0.,0.));
#181=DIRECTION('',(0.,0.,-1.));
#182=DIRECTION('center_axis',(0.,0.,-1.));
#183=DIRECTION('ref_axis',(1.,0.,0.));
#184=DIRECTION('center_axis',(0.,0.,-1.));
#185=DIRECTION('ref_axis',(1.,0.,0.));
#186=DIRECTION('',(-0.707106781186549,-8.65956056235495E-17,-0.707106781186546));
#187=DIRECTION('center_axis',(0.,0.,1.));
#188=DIRECTION('ref_axis',(1.,0.,0.));
#189=DIRECTION('center_axis',(0.,0.,1.));
#190=DIRECTION('ref_axis',(1.,0.,0.));
#191=DIRECTION('',(0.,0.,-1.));
#192=DIRECTION('center_axis',(0.,0.,-1.));
#193=DIRECTION('ref_axis',(1.,0.,0.));
#194=DIRECTION('center_axis',(0.,0.,1.));
#195=DIRECTION('ref_axis',(1.,0.,0.));
#196=DIRECTION('center_axis',(0.,0.,-1.));
#197=DIRECTION('ref_axis',(-1.,0.,0.));
#198=DIRECTION('center_axis',(0.,0.,1.));
#199=DIRECTION('ref_axis',(1.,0.,0.));
#200=DIRECTION('',(0.707106781186548,8.65956056235494E-17,-0.707106781186547));
#201=DIRECTION('center_axis',(0.,0.,1.));
#202=DIRECTION('ref_axis',(-1.,0.,0.));
#203=DIRECTION('center_axis',(0.,0.,1.));
#204=DIRECTION('ref_axis',(-1.,0.,0.));
#205=DIRECTION('',(0.,0.,-1.));
#206=DIRECTION('center_axis',(0.,0.,1.));
#207=DIRECTION('ref_axis',(-1.,0.,0.));
#208=CARTESIAN_POINT('',(0.,0.,0.));
#209=CARTESIAN_POINT('Origin',(0.,0.,0.249999999999999));
#210=CARTESIAN_POINT('',(6.7,-8.20513355428727E-16,0.));
#211=CARTESIAN_POINT('Origin',(0.,0.,0.));
#212=CARTESIAN_POINT('',(6.2,7.59281015471359E-16,0.499999999999998));
#213=CARTESIAN_POINT('',(6.45,-7.89897185450043E-16,0.249999999999999));
#214=CARTESIAN_POINT('Origin',(0.,0.,0.499999999999998));
#215=CARTESIAN_POINT('Origin',(0.,0.,0.));
#216=CARTESIAN_POINT('',(-17.5,-2.14313189850787E-15,0.));
#217=CARTESIAN_POINT('Origin',(0.,0.,0.));
#218=CARTESIAN_POINT('Origin',(0.,0.,41.));
#219=CARTESIAN_POINT('',(6.2,7.59281015471359E-16,41.));
#220=CARTESIAN_POINT('Origin',(0.,0.,41.));
#221=CARTESIAN_POINT('',(6.2,-7.59281015471359E-16,41.));
#222=CARTESIAN_POINT('Origin',(0.,0.,35.75));
#223=CARTESIAN_POINT('',(-17.5,2.14313189850787E-15,36.));
#224=CARTESIAN_POINT('Origin',(0.,0.,36.));
#225=CARTESIAN_POINT('',(-18.,-2.20436423846524E-15,35.5));
#226=CARTESIAN_POINT('',(-17.75,-2.17374806848655E-15,35.75));
#227=CARTESIAN_POINT('Origin',(0.,0.,35.5));
#228=CARTESIAN_POINT('Origin',(0.,0.,0.));
#229=CARTESIAN_POINT('',(-18.,2.20436423846524E-15,0.5));
#230=CARTESIAN_POINT('',(-18.,-2.20436423846524E-15,0.));
#231=CARTESIAN_POINT('Origin',(0.,0.,0.5));
#232=CARTESIAN_POINT('Origin',(0.,0.,36.));
#233=CARTESIAN_POINT('',(15.7,1.92269547466134E-15,36.));
#234=CARTESIAN_POINT('Origin',(0.,0.,36.));
#235=CARTESIAN_POINT('Origin',(0.,0.,0.25));
#236=CARTESIAN_POINT('',(-17.75,-2.17374806848655E-15,0.25));
#237=CARTESIAN_POINT('Origin',(0.,0.,36.));
#238=CARTESIAN_POINT('',(15.7,1.92269547466134E-15,41.));
#239=CARTESIAN_POINT('Origin',(0.,0.,41.));
#240=CARTESIAN_POINT('',(15.7,1.92269547466134E-15,36.));
#241=CARTESIAN_POINT('Origin',(0.,0.,41.));
#242=UNCERTAINTY_MEASURE_WITH_UNIT(LENGTH_MEASURE(0.01),#246,
'DISTANCE_ACCURACY_VALUE',
'Maximum model space distance between geometric entities at asserted c
onnectivities');
#243=UNCERTAINTY_MEASURE_WITH_UNIT(LENGTH_MEASURE(0.01),#246,
'DISTANCE_ACCURACY_VALUE',
'Maximum model space distance between geometric entities at asserted c
onnectivities');
#244=(
GEOMETRIC_REPRESENTATION_CONTEXT(3)
GLOBAL_UNCERTAINTY_ASSIGNED_CONTEXT((#242))
GLOBAL_UNIT_ASSIGNED_CONTEXT((#246,#248,#249))
REPRESENTATION_CONTEXT('','3D')
);
#245=(
GEOMETRIC_REPRESENTATION_CONTEXT(3)
GLOBAL_UNCERTAINTY_ASSIGNED_CONTEXT((#243))
GLOBAL_UNIT_ASSIGNED_CONTEXT((#246,#248,#249))
REPRESENTATION_CONTEXT('','3D')
);
#246=(
LENGTH_UNIT()
NAMED_UNIT(*)
SI_UNIT(.MILLI.,.METRE.)
);
#247=(
LENGTH_UNIT()
NAMED_UNIT(*)
SI_UNIT($,.METRE.)
);
#248=(
NAMED_UNIT(*)
PLANE_ANGLE_UNIT()
SI_UNIT($,.RADIAN.)
);
#249=(
NAMED_UNIT(*)
SI_UNIT($,.STERADIAN.)
SOLID_ANGLE_UNIT()
);
#250=SHAPE_DEFINITION_REPRESENTATION(#251,#252);
#251=PRODUCT_DEFINITION_SHAPE('',$,#254);
#252=SHAPE_REPRESENTATION('',(#145),#244);
#253=PRODUCT_DEFINITION_CONTEXT('part definition',#258,'design');
#254=PRODUCT_DEFINITION('upper casting def','upper casting def v2',#255,
#253);
#255=PRODUCT_DEFINITION_FORMATION('',$,#260);
#256=PRODUCT_RELATED_PRODUCT_CATEGORY('upper casting def v2',
'upper casting def v2',(#260));
#257=APPLICATION_PROTOCOL_DEFINITION('international standard',
'automotive_design',2009,#258);
#258=APPLICATION_CONTEXT(
'Core Data for Automotive Mechanical Design Process');
#259=PRODUCT_CONTEXT('part definition',#258,'mechanical');
#260=PRODUCT('upper casting def','upper casting def v2',$,(#259));
#261=PRESENTATION_STYLE_ASSIGNMENT((#262));
#262=SURFACE_STYLE_USAGE(.BOTH.,#263);
#263=SURFACE_SIDE_STYLE('',(#264));
#264=SURFACE_STYLE_FILL_AREA(#265);
#265=FILL_AREA_STYLE('Acier - Satin\X\E9',(#266));
#266=FILL_AREA_STYLE_COLOUR('Acier - Satin\X\E9',#267);
#267=COLOUR_RGB('Acier - Satin\X\E9',0.627450980392157,0.627450980392157,
0.627450980392157);
ENDSEC;
END-ISO-10303-21;
