ISO-10303-21;
HEADER;
/* Generated by software containing ST-Developer
 * from STEP Tools, Inc. (www.steptools.com) 
 */

FILE_DESCRIPTION(
/* description */ (''),
/* implementation_level */ '2;1');

FILE_NAME(
/* name */ 'C:/Users/thier/Documents/moteur KNSB/mandrin liners .step',

/* time_stamp */ '2020-12-31T17:54:58+01:00',
/* author */ (''),
/* organization */ (''),
/* preprocessor_version */ 'ST-DEVELOPER v18.1',
/* originating_system */ 'Autodesk Translation Framework v9.7.1.1290',
/* authorisation */ '');

FILE_SCHEMA (('AUTOMOTIVE_DESIGN { 1 0 10303 214 3 1 1 }'));
ENDSEC;

DATA;
#10=MECHANICAL_DESIGN_GEOMETRIC_PRESENTATION_REPRESENTATION('',(#13),#86);
#11=SHAPE_REPRESENTATION_RELATIONSHIP('SRR','None',#93,#12);
#12=ADVANCED_BREP_SHAPE_REPRESENTATION('',(#14),#85);
#13=STYLED_ITEM('',(#102),#14);
#14=MANIFOLD_SOLID_BREP('Corps1',#42);
#15=PLANE('',#59);
#16=PLANE('',#60);
#17=FACE_OUTER_BOUND('',#20,.T.);
#18=FACE_OUTER_BOUND('',#21,.T.);
#19=FACE_OUTER_BOUND('',#22,.T.);
#20=EDGE_LOOP('',(#32,#33,#34,#35));
#21=EDGE_LOOP('',(#36));
#22=EDGE_LOOP('',(#37));
#23=LINE('',#79,#24);
#24=VECTOR('',#67,16.1);
#25=CIRCLE('',#57,16.1);
#26=CIRCLE('',#58,16.1);
#27=VERTEX_POINT('',#76);
#28=VERTEX_POINT('',#78);
#29=EDGE_CURVE('',#27,#27,#25,.T.);
#30=EDGE_CURVE('',#27,#28,#23,.T.);
#31=EDGE_CURVE('',#28,#28,#26,.T.);
#32=ORIENTED_EDGE('',*,*,#29,.F.);
#33=ORIENTED_EDGE('',*,*,#30,.T.);
#34=ORIENTED_EDGE('',*,*,#31,.T.);
#35=ORIENTED_EDGE('',*,*,#30,.F.);
#36=ORIENTED_EDGE('',*,*,#29,.T.);
#37=ORIENTED_EDGE('',*,*,#31,.F.);
#38=CYLINDRICAL_SURFACE('',#56,16.1);
#39=ADVANCED_FACE('',(#17),#38,.T.);
#40=ADVANCED_FACE('',(#18),#15,.T.);
#41=ADVANCED_FACE('',(#19),#16,.F.);
#42=CLOSED_SHELL('',(#39,#40,#41));
#43=DERIVED_UNIT_ELEMENT(#45,1.);
#44=DERIVED_UNIT_ELEMENT(#88,-3.);
#45=(
MASS_UNIT()
NAMED_UNIT(*)
SI_UNIT(.KILO.,.GRAM.)
);
#46=DERIVED_UNIT((#43,#44));
#47=MEASURE_REPRESENTATION_ITEM('density measure',
POSITIVE_RATIO_MEASURE(7850.),#46);
#48=PROPERTY_DEFINITION_REPRESENTATION(#53,#50);
#49=PROPERTY_DEFINITION_REPRESENTATION(#54,#51);
#50=REPRESENTATION('material name',(#52),#85);
#51=REPRESENTATION('density',(#47),#85);
#52=DESCRIPTIVE_REPRESENTATION_ITEM('Acier','Acier');
#53=PROPERTY_DEFINITION('material property','material name',#95);
#54=PROPERTY_DEFINITION('material property','density of part',#95);
#55=AXIS2_PLACEMENT_3D('placement',#74,#61,#62);
#56=AXIS2_PLACEMENT_3D('',#75,#63,#64);
#57=AXIS2_PLACEMENT_3D('',#77,#65,#66);
#58=AXIS2_PLACEMENT_3D('',#80,#68,#69);
#59=AXIS2_PLACEMENT_3D('',#81,#70,#71);
#60=AXIS2_PLACEMENT_3D('',#82,#72,#73);
#61=DIRECTION('axis',(0.,0.,1.));
#62=DIRECTION('refdir',(1.,0.,0.));
#63=DIRECTION('center_axis',(0.,0.,1.));
#64=DIRECTION('ref_axis',(1.,0.,0.));
#65=DIRECTION('center_axis',(0.,0.,1.));
#66=DIRECTION('ref_axis',(1.,0.,0.));
#67=DIRECTION('',(0.,0.,-1.));
#68=DIRECTION('center_axis',(0.,0.,1.));
#69=DIRECTION('ref_axis',(1.,0.,0.));
#70=DIRECTION('center_axis',(0.,0.,1.));
#71=DIRECTION('ref_axis',(1.,0.,0.));
#72=DIRECTION('center_axis',(0.,0.,1.));
#73=DIRECTION('ref_axis',(1.,0.,0.));
#74=CARTESIAN_POINT('',(0.,0.,0.));
#75=CARTESIAN_POINT('Origin',(0.,0.,0.));
#76=CARTESIAN_POINT('',(-16.1,-1.97168134662724E-15,300.));
#77=CARTESIAN_POINT('Origin',(0.,0.,300.));
#78=CARTESIAN_POINT('',(-16.1,-1.97168134662724E-15,0.));
#79=CARTESIAN_POINT('',(-16.1,-1.97168134662724E-15,0.));
#80=CARTESIAN_POINT('Origin',(0.,0.,0.));
#81=CARTESIAN_POINT('Origin',(0.,0.,300.));
#82=CARTESIAN_POINT('Origin',(0.,0.,0.));
#83=UNCERTAINTY_MEASURE_WITH_UNIT(LENGTH_MEASURE(0.01),#87,
'DISTANCE_ACCURACY_VALUE',
'Maximum model space distance between geometric entities at asserted c
onnectivities');
#84=UNCERTAINTY_MEASURE_WITH_UNIT(LENGTH_MEASURE(0.01),#87,
'DISTANCE_ACCURACY_VALUE',
'Maximum model space distance between geometric entities at asserted c
onnectivities');
#85=(
GEOMETRIC_REPRESENTATION_CONTEXT(3)
GLOBAL_UNCERTAINTY_ASSIGNED_CONTEXT((#83))
GLOBAL_UNIT_ASSIGNED_CONTEXT((#87,#89,#90))
REPRESENTATION_CONTEXT('','3D')
);
#86=(
GEOMETRIC_REPRESENTATION_CONTEXT(3)
GLOBAL_UNCERTAINTY_ASSIGNED_CONTEXT((#84))
GLOBAL_UNIT_ASSIGNED_CONTEXT((#87,#89,#90))
REPRESENTATION_CONTEXT('','3D')
);
#87=(
LENGTH_UNIT()
NAMED_UNIT(*)
SI_UNIT(.MILLI.,.METRE.)
);
#88=(
LENGTH_UNIT()
NAMED_UNIT(*)
SI_UNIT($,.METRE.)
);
#89=(
NAMED_UNIT(*)
PLANE_ANGLE_UNIT()
SI_UNIT($,.RADIAN.)
);
#90=(
NAMED_UNIT(*)
SI_UNIT($,.STERADIAN.)
SOLID_ANGLE_UNIT()
);
#91=SHAPE_DEFINITION_REPRESENTATION(#92,#93);
#92=PRODUCT_DEFINITION_SHAPE('',$,#95);
#93=SHAPE_REPRESENTATION('',(#55),#85);
#94=PRODUCT_DEFINITION_CONTEXT('part definition',#99,'design');
#95=PRODUCT_DEFINITION('mandrin liners','mandrin liners v1',#96,#94);
#96=PRODUCT_DEFINITION_FORMATION('',$,#101);
#97=PRODUCT_RELATED_PRODUCT_CATEGORY('mandrin liners v1',
'mandrin liners v1',(#101));
#98=APPLICATION_PROTOCOL_DEFINITION('international standard',
'automotive_design',2009,#99);
#99=APPLICATION_CONTEXT(
'Core Data for Automotive Mechanical Design Process');
#100=PRODUCT_CONTEXT('part definition',#99,'mechanical');
#101=PRODUCT('mandrin liners','mandrin liners v1',$,(#100));
#102=PRESENTATION_STYLE_ASSIGNMENT((#103));
#103=SURFACE_STYLE_USAGE(.BOTH.,#104);
#104=SURFACE_SIDE_STYLE('',(#105));
#105=SURFACE_STYLE_FILL_AREA(#106);
#106=FILL_AREA_STYLE('Acier - Satin\X\E9',(#107));
#107=FILL_AREA_STYLE_COLOUR('Acier - Satin\X\E9',#108);
#108=COLOUR_RGB('Acier - Satin\X\E9',0.627450980392157,0.627450980392157,
0.627450980392157);
ENDSEC;
END-ISO-10303-21;
