ISO-10303-21;
HEADER;
/* Generated by software containing ST-Developer
 * from STEP Tools, Inc. (www.steptools.com) 
 */

FILE_DESCRIPTION(
/* description */ (''),
/* implementation_level */ '2;1');

FILE_NAME(
/* name */ 
'C:/Users/thier/Documents/moteur KNSB/coring tool def v2.step',
/* time_stamp */ '2020-12-31T17:55:45+01:00',
/* author */ (''),
/* organization */ (''),
/* preprocessor_version */ 'ST-DEVELOPER v18.1',
/* originating_system */ 'Autodesk Translation Framework v9.7.1.1290',
/* authorisation */ '');

FILE_SCHEMA (('AUTOMOTIVE_DESIGN { 1 0 10303 214 3 1 1 }'));
ENDSEC;

DATA;
#10=MECHANICAL_DESIGN_GEOMETRIC_PRESENTATION_REPRESENTATION('',(#13),#251);
#11=SHAPE_REPRESENTATION_RELATIONSHIP('SRR','None',#258,#12);
#12=ADVANCED_BREP_SHAPE_REPRESENTATION('',(#14),#250);
#13=STYLED_ITEM('',(#268),#14);
#14=MANIFOLD_SOLID_BREP('Corps1',#134);
#15=FACE_BOUND('',#42,.T.);
#16=FACE_BOUND('',#45,.T.);
#17=CYLINDRICAL_SURFACE('',#152,6.);
#18=CYLINDRICAL_SURFACE('',#157,18.);
#19=CYLINDRICAL_SURFACE('',#164,15.7);
#20=PLANE('',#151);
#21=PLANE('',#159);
#22=PLANE('',#162);
#23=PLANE('',#166);
#24=FACE_OUTER_BOUND('',#34,.T.);
#25=FACE_OUTER_BOUND('',#35,.T.);
#26=FACE_OUTER_BOUND('',#36,.T.);
#27=FACE_OUTER_BOUND('',#37,.T.);
#28=FACE_OUTER_BOUND('',#38,.T.);
#29=FACE_OUTER_BOUND('',#39,.T.);
#30=FACE_OUTER_BOUND('',#40,.T.);
#31=FACE_OUTER_BOUND('',#41,.T.);
#32=FACE_OUTER_BOUND('',#43,.T.);
#33=FACE_OUTER_BOUND('',#44,.T.);
#34=EDGE_LOOP('',(#91,#92,#93,#94));
#35=EDGE_LOOP('',(#95));
#36=EDGE_LOOP('',(#96,#97,#98,#99));
#37=EDGE_LOOP('',(#100,#101,#102,#103));
#38=EDGE_LOOP('',(#104,#105,#106,#107));
#39=EDGE_LOOP('',(#108));
#40=EDGE_LOOP('',(#109,#110,#111,#112));
#41=EDGE_LOOP('',(#113));
#42=EDGE_LOOP('',(#114));
#43=EDGE_LOOP('',(#115,#116,#117,#118));
#44=EDGE_LOOP('',(#119));
#45=EDGE_LOOP('',(#120));
#46=LINE('',#218,#52);
#47=LINE('',#223,#53);
#48=LINE('',#229,#54);
#49=LINE('',#234,#55);
#50=LINE('',#239,#56);
#51=LINE('',#246,#57);
#52=VECTOR('',#173,5.75);
#53=VECTOR('',#180,6.);
#54=VECTOR('',#187,17.75);
#55=VECTOR('',#194,18.);
#56=VECTOR('',#201,17.75);
#57=VECTOR('',#210,15.7);
#58=CIRCLE('',#149,6.);
#59=CIRCLE('',#150,5.5);
#60=CIRCLE('',#153,6.);
#61=CIRCLE('',#155,18.);
#62=CIRCLE('',#156,17.5);
#63=CIRCLE('',#158,18.);
#64=CIRCLE('',#161,17.5);
#65=CIRCLE('',#163,15.7);
#66=CIRCLE('',#165,15.7);
#67=VERTEX_POINT('',#215);
#68=VERTEX_POINT('',#217);
#69=VERTEX_POINT('',#222);
#70=VERTEX_POINT('',#226);
#71=VERTEX_POINT('',#228);
#72=VERTEX_POINT('',#232);
#73=VERTEX_POINT('',#237);
#74=VERTEX_POINT('',#241);
#75=VERTEX_POINT('',#244);
#76=EDGE_CURVE('',#67,#67,#58,.T.);
#77=EDGE_CURVE('',#67,#68,#46,.T.);
#78=EDGE_CURVE('',#68,#68,#59,.T.);
#79=EDGE_CURVE('',#67,#69,#47,.T.);
#80=EDGE_CURVE('',#69,#69,#60,.T.);
#81=EDGE_CURVE('',#70,#70,#61,.T.);
#82=EDGE_CURVE('',#70,#71,#48,.T.);
#83=EDGE_CURVE('',#71,#71,#62,.T.);
#84=EDGE_CURVE('',#72,#72,#63,.T.);
#85=EDGE_CURVE('',#72,#70,#49,.T.);
#86=EDGE_CURVE('',#73,#73,#64,.T.);
#87=EDGE_CURVE('',#73,#72,#50,.T.);
#88=EDGE_CURVE('',#74,#74,#65,.T.);
#89=EDGE_CURVE('',#75,#75,#66,.T.);
#90=EDGE_CURVE('',#75,#74,#51,.T.);
#91=ORIENTED_EDGE('',*,*,#76,.T.);
#92=ORIENTED_EDGE('',*,*,#77,.T.);
#93=ORIENTED_EDGE('',*,*,#78,.T.);
#94=ORIENTED_EDGE('',*,*,#77,.F.);
#95=ORIENTED_EDGE('',*,*,#78,.F.);
#96=ORIENTED_EDGE('',*,*,#76,.F.);
#97=ORIENTED_EDGE('',*,*,#79,.T.);
#98=ORIENTED_EDGE('',*,*,#80,.F.);
#99=ORIENTED_EDGE('',*,*,#79,.F.);
#100=ORIENTED_EDGE('',*,*,#81,.T.);
#101=ORIENTED_EDGE('',*,*,#82,.T.);
#102=ORIENTED_EDGE('',*,*,#83,.T.);
#103=ORIENTED_EDGE('',*,*,#82,.F.);
#104=ORIENTED_EDGE('',*,*,#84,.F.);
#105=ORIENTED_EDGE('',*,*,#85,.T.);
#106=ORIENTED_EDGE('',*,*,#81,.F.);
#107=ORIENTED_EDGE('',*,*,#85,.F.);
#108=ORIENTED_EDGE('',*,*,#83,.F.);
#109=ORIENTED_EDGE('',*,*,#86,.T.);
#110=ORIENTED_EDGE('',*,*,#87,.T.);
#111=ORIENTED_EDGE('',*,*,#84,.T.);
#112=ORIENTED_EDGE('',*,*,#87,.F.);
#113=ORIENTED_EDGE('',*,*,#86,.F.);
#114=ORIENTED_EDGE('',*,*,#88,.T.);
#115=ORIENTED_EDGE('',*,*,#89,.F.);
#116=ORIENTED_EDGE('',*,*,#90,.T.);
#117=ORIENTED_EDGE('',*,*,#88,.F.);
#118=ORIENTED_EDGE('',*,*,#90,.F.);
#119=ORIENTED_EDGE('',*,*,#89,.T.);
#120=ORIENTED_EDGE('',*,*,#80,.T.);
#121=CONICAL_SURFACE('',#148,5.75,0.785398163397442);
#122=CONICAL_SURFACE('',#154,17.75,0.785398163397449);
#123=CONICAL_SURFACE('',#160,17.75,0.785398163397451);
#124=ADVANCED_FACE('',(#24),#121,.T.);
#125=ADVANCED_FACE('',(#25),#20,.T.);
#126=ADVANCED_FACE('',(#26),#17,.T.);
#127=ADVANCED_FACE('',(#27),#122,.T.);
#128=ADVANCED_FACE('',(#28),#18,.T.);
#129=ADVANCED_FACE('',(#29),#21,.F.);
#130=ADVANCED_FACE('',(#30),#123,.T.);
#131=ADVANCED_FACE('',(#31,#15),#22,.T.);
#132=ADVANCED_FACE('',(#32),#19,.T.);
#133=ADVANCED_FACE('',(#33,#16),#23,.T.);
#134=CLOSED_SHELL('',(#124,#125,#126,#127,#128,#129,#130,#131,#132,#133));
#135=DERIVED_UNIT_ELEMENT(#137,1.);
#136=DERIVED_UNIT_ELEMENT(#253,-3.);
#137=(
MASS_UNIT()
NAMED_UNIT(*)
SI_UNIT(.KILO.,.GRAM.)
);
#138=DERIVED_UNIT((#135,#136));
#139=MEASURE_REPRESENTATION_ITEM('density measure',
POSITIVE_RATIO_MEASURE(7850.),#138);
#140=PROPERTY_DEFINITION_REPRESENTATION(#145,#142);
#141=PROPERTY_DEFINITION_REPRESENTATION(#146,#143);
#142=REPRESENTATION('material name',(#144),#250);
#143=REPRESENTATION('density',(#139),#250);
#144=DESCRIPTIVE_REPRESENTATION_ITEM('Acier','Acier');
#145=PROPERTY_DEFINITION('material property','material name',#260);
#146=PROPERTY_DEFINITION('material property','density of part',#260);
#147=AXIS2_PLACEMENT_3D('placement',#213,#167,#168);
#148=AXIS2_PLACEMENT_3D('',#214,#169,#170);
#149=AXIS2_PLACEMENT_3D('',#216,#171,#172);
#150=AXIS2_PLACEMENT_3D('',#219,#174,#175);
#151=AXIS2_PLACEMENT_3D('',#220,#176,#177);
#152=AXIS2_PLACEMENT_3D('',#221,#178,#179);
#153=AXIS2_PLACEMENT_3D('',#224,#181,#182);
#154=AXIS2_PLACEMENT_3D('',#225,#183,#184);
#155=AXIS2_PLACEMENT_3D('',#227,#185,#186);
#156=AXIS2_PLACEMENT_3D('',#230,#188,#189);
#157=AXIS2_PLACEMENT_3D('',#231,#190,#191);
#158=AXIS2_PLACEMENT_3D('',#233,#192,#193);
#159=AXIS2_PLACEMENT_3D('',#235,#195,#196);
#160=AXIS2_PLACEMENT_3D('',#236,#197,#198);
#161=AXIS2_PLACEMENT_3D('',#238,#199,#200);
#162=AXIS2_PLACEMENT_3D('',#240,#202,#203);
#163=AXIS2_PLACEMENT_3D('',#242,#204,#205);
#164=AXIS2_PLACEMENT_3D('',#243,#206,#207);
#165=AXIS2_PLACEMENT_3D('',#245,#208,#209);
#166=AXIS2_PLACEMENT_3D('',#247,#211,#212);
#167=DIRECTION('axis',(0.,0.,1.));
#168=DIRECTION('refdir',(1.,0.,0.));
#169=DIRECTION('center_axis',(0.,0.,-1.));
#170=DIRECTION('ref_axis',(-1.,0.,0.));
#171=DIRECTION('center_axis',(0.,0.,1.));
#172=DIRECTION('ref_axis',(-1.,0.,0.));
#173=DIRECTION('',(-0.707106781186543,8.65956056235487E-17,0.707106781186552));
#174=DIRECTION('center_axis',(0.,0.,-1.));
#175=DIRECTION('ref_axis',(-1.,0.,0.));
#176=DIRECTION('center_axis',(0.,0.,1.));
#177=DIRECTION('ref_axis',(-1.,0.,0.));
#178=DIRECTION('center_axis',(0.,0.,1.));
#179=DIRECTION('ref_axis',(-1.,0.,0.));
#180=DIRECTION('',(0.,0.,-1.));
#181=DIRECTION('center_axis',(0.,0.,-1.));
#182=DIRECTION('ref_axis',(-1.,0.,0.));
#183=DIRECTION('center_axis',(0.,0.,1.));
#184=DIRECTION('ref_axis',(1.,0.,0.));
#185=DIRECTION('center_axis',(0.,0.,-1.));
#186=DIRECTION('ref_axis',(1.,0.,0.));
#187=DIRECTION('',(0.707106781186548,8.65956056235494E-17,-0.707106781186547));
#188=DIRECTION('center_axis',(0.,0.,1.));
#189=DIRECTION('ref_axis',(1.,0.,0.));
#190=DIRECTION('center_axis',(0.,0.,1.));
#191=DIRECTION('ref_axis',(1.,0.,0.));
#192=DIRECTION('center_axis',(0.,0.,1.));
#193=DIRECTION('ref_axis',(1.,0.,0.));
#194=DIRECTION('',(0.,0.,-1.));
#195=DIRECTION('center_axis',(0.,0.,1.));
#196=DIRECTION('ref_axis',(1.,0.,0.));
#197=DIRECTION('center_axis',(0.,0.,-1.));
#198=DIRECTION('ref_axis',(1.,0.,0.));
#199=DIRECTION('center_axis',(0.,0.,-1.));
#200=DIRECTION('ref_axis',(1.,0.,0.));
#201=DIRECTION('',(-0.707106781186549,-8.65956056235495E-17,-0.707106781186546));
#202=DIRECTION('center_axis',(0.,0.,1.));
#203=DIRECTION('ref_axis',(1.,0.,0.));
#204=DIRECTION('center_axis',(0.,0.,-1.));
#205=DIRECTION('ref_axis',(1.,0.,0.));
#206=DIRECTION('center_axis',(0.,0.,1.));
#207=DIRECTION('ref_axis',(1.,0.,0.));
#208=DIRECTION('center_axis',(0.,0.,1.));
#209=DIRECTION('ref_axis',(1.,0.,0.));
#210=DIRECTION('',(0.,0.,-1.));
#211=DIRECTION('center_axis',(0.,0.,1.));
#212=DIRECTION('ref_axis',(1.,0.,0.));
#213=CARTESIAN_POINT('',(0.,0.,0.));
#214=CARTESIAN_POINT('Origin',(0.,0.,122.55));
#215=CARTESIAN_POINT('',(6.,7.34788079488412E-16,122.3));
#216=CARTESIAN_POINT('Origin',(0.,0.,122.3));
#217=CARTESIAN_POINT('',(5.5,-6.73555739531044E-16,122.8));
#218=CARTESIAN_POINT('',(5.75,-7.04171909509728E-16,122.55));
#219=CARTESIAN_POINT('Origin',(0.,0.,122.8));
#220=CARTESIAN_POINT('Origin',(0.,0.,122.8));
#221=CARTESIAN_POINT('Origin',(0.,0.,41.));
#222=CARTESIAN_POINT('',(6.,7.34788079488412E-16,41.));
#223=CARTESIAN_POINT('',(6.,7.34788079488412E-16,41.));
#224=CARTESIAN_POINT('Origin',(0.,0.,41.));
#225=CARTESIAN_POINT('Origin',(0.,0.,0.25));
#226=CARTESIAN_POINT('',(-18.,2.20436423846524E-15,0.5));
#227=CARTESIAN_POINT('Origin',(0.,0.,0.5));
#228=CARTESIAN_POINT('',(-17.5,-2.14313189850787E-15,0.));
#229=CARTESIAN_POINT('',(-17.75,-2.17374806848655E-15,0.25));
#230=CARTESIAN_POINT('Origin',(0.,0.,0.));
#231=CARTESIAN_POINT('Origin',(0.,0.,0.));
#232=CARTESIAN_POINT('',(-18.,-2.20436423846524E-15,35.5));
#233=CARTESIAN_POINT('Origin',(0.,0.,35.5));
#234=CARTESIAN_POINT('',(-18.,-2.20436423846524E-15,0.));
#235=CARTESIAN_POINT('Origin',(0.,0.,0.));
#236=CARTESIAN_POINT('Origin',(0.,0.,35.75));
#237=CARTESIAN_POINT('',(-17.5,2.14313189850787E-15,36.));
#238=CARTESIAN_POINT('Origin',(0.,0.,36.));
#239=CARTESIAN_POINT('',(-17.75,-2.17374806848655E-15,35.75));
#240=CARTESIAN_POINT('Origin',(0.,0.,36.));
#241=CARTESIAN_POINT('',(-15.7,-1.92269547466134E-15,36.));
#242=CARTESIAN_POINT('Origin',(0.,0.,36.));
#243=CARTESIAN_POINT('Origin',(0.,0.,36.));
#244=CARTESIAN_POINT('',(-15.7,-1.92269547466134E-15,41.));
#245=CARTESIAN_POINT('Origin',(0.,0.,41.));
#246=CARTESIAN_POINT('',(-15.7,-1.92269547466134E-15,36.));
#247=CARTESIAN_POINT('Origin',(0.,0.,41.));
#248=UNCERTAINTY_MEASURE_WITH_UNIT(LENGTH_MEASURE(0.01),#252,
'DISTANCE_ACCURACY_VALUE',
'Maximum model space distance between geometric entities at asserted c
onnectivities');
#249=UNCERTAINTY_MEASURE_WITH_UNIT(LENGTH_MEASURE(0.01),#252,
'DISTANCE_ACCURACY_VALUE',
'Maximum model space distance between geometric entities at asserted c
onnectivities');
#250=(
GEOMETRIC_REPRESENTATION_CONTEXT(3)
GLOBAL_UNCERTAINTY_ASSIGNED_CONTEXT((#248))
GLOBAL_UNIT_ASSIGNED_CONTEXT((#252,#254,#255))
REPRESENTATION_CONTEXT('','3D')
);
#251=(
GEOMETRIC_REPRESENTATION_CONTEXT(3)
GLOBAL_UNCERTAINTY_ASSIGNED_CONTEXT((#249))
GLOBAL_UNIT_ASSIGNED_CONTEXT((#252,#254,#255))
REPRESENTATION_CONTEXT('','3D')
);
#252=(
LENGTH_UNIT()
NAMED_UNIT(*)
SI_UNIT(.MILLI.,.METRE.)
);
#253=(
LENGTH_UNIT()
NAMED_UNIT(*)
SI_UNIT($,.METRE.)
);
#254=(
NAMED_UNIT(*)
PLANE_ANGLE_UNIT()
SI_UNIT($,.RADIAN.)
);
#255=(
NAMED_UNIT(*)
SI_UNIT($,.STERADIAN.)
SOLID_ANGLE_UNIT()
);
#256=SHAPE_DEFINITION_REPRESENTATION(#257,#258);
#257=PRODUCT_DEFINITION_SHAPE('',$,#260);
#258=SHAPE_REPRESENTATION('',(#147),#250);
#259=PRODUCT_DEFINITION_CONTEXT('part definition',#264,'design');
#260=PRODUCT_DEFINITION('coring tool def','coring tool def v4',#261,#259);
#261=PRODUCT_DEFINITION_FORMATION('',$,#266);
#262=PRODUCT_RELATED_PRODUCT_CATEGORY('coring tool def v4',
'coring tool def v4',(#266));
#263=APPLICATION_PROTOCOL_DEFINITION('international standard',
'automotive_design',2009,#264);
#264=APPLICATION_CONTEXT(
'Core Data for Automotive Mechanical Design Process');
#265=PRODUCT_CONTEXT('part definition',#264,'mechanical');
#266=PRODUCT('coring tool def','coring tool def v4',$,(#265));
#267=PRESENTATION_STYLE_ASSIGNMENT((#269));
#268=PRESENTATION_STYLE_ASSIGNMENT((#270));
#269=SURFACE_STYLE_USAGE(.BOTH.,#271);
#270=SURFACE_STYLE_USAGE(.BOTH.,#272);
#271=SURFACE_SIDE_STYLE('',(#273));
#272=SURFACE_SIDE_STYLE('',(#274));
#273=SURFACE_STYLE_FILL_AREA(#275);
#274=SURFACE_STYLE_FILL_AREA(#276);
#275=FILL_AREA_STYLE('Acier - Satin\X\E9',(#277));
#276=FILL_AREA_STYLE('Aluminium - Satin\X\E9',(#278));
#277=FILL_AREA_STYLE_COLOUR('Acier - Satin\X\E9',#279);
#278=FILL_AREA_STYLE_COLOUR('Aluminium - Satin\X\E9',#280);
#279=COLOUR_RGB('Acier - Satin\X\E9',0.627450980392157,0.627450980392157,
0.627450980392157);
#280=COLOUR_RGB('Aluminium - Satin\X\E9',0.96078431372549,0.96078431372549,
0.964705882352941);
ENDSEC;
END-ISO-10303-21;
