ISO-10303-21;
HEADER;
FILE_DESCRIPTION (( 'STEP AP203' ),
    '1' );
FILE_NAME ('Loqueteau à rouleau 4.STEP',
    '2020-12-04T17:14:23',
    ( '' ),
    ( '' ),
    'SwSTEP 2.0',
    'SolidWorks 2020',
    '' );
FILE_SCHEMA (( 'CONFIG_CONTROL_DESIGN' ));
ENDSEC;

DATA;
#1 = AXIS2_PLACEMENT_3D ( 'NONE', #34, #139, #10 ) ;
#2 = ORIENTED_EDGE ( 'NONE', *, *, #145, .F. ) ;
#3 = EDGE_LOOP ( 'NONE', ( #16 ) ) ;
#4 = CC_DESIGN_PERSON_AND_ORGANIZATION_ASSIGNMENT ( #143, #207, ( #116 ) ) ;
#5 = CARTESIAN_POINT ( 'NONE',  ( -1.499999999999997780, -7.500000000000000000, 0.000000000000000000 ) ) ;
#6 = APPROVAL_PERSON_ORGANIZATION ( #107, #64, #158 ) ;
#7 = FACE_BOUND ( 'NONE', #46, .T. ) ;
#8 = CARTESIAN_POINT ( 'NONE',  ( -1.499999999999999556, 6.999999999999999112, -4.750000000000000000 ) ) ;
#9 = CIRCLE ( 'NONE', #30, 1.500000000000000000 ) ;
#10 = DIRECTION ( 'NONE',  ( 1.000000000000000000, 1.156482317317871478E-16, 0.000000000000000000 ) ) ;
#11 = CIRCLE ( 'NONE', #44, 4.249999999999998224 ) ;
#12 = CARTESIAN_POINT ( 'NONE',  ( -5.749999999999996447, -7.500000000000000888, 0.000000000000000000 ) ) ;
#13 = PERSON_AND_ORGANIZATION ( #28, #49 ) ;
#14 = ORIENTED_EDGE ( 'NONE', *, *, #113, .T. ) ;
#15 = EDGE_LOOP ( 'NONE', ( #2 ) ) ;
#16 = ORIENTED_EDGE ( 'NONE', *, *, #35, .F. ) ;
#17 = CC_DESIGN_APPROVAL ( #209, ( #206 ) ) ;
#18 = CC_DESIGN_APPROVAL ( #108, ( #116 ) ) ;
#19 = DIRECTION ( 'NONE',  ( 0.000000000000000000, 0.000000000000000000, 1.000000000000000000 ) ) ;
#20 = FACE_BOUND ( 'NONE', #15, .T. ) ;
#21 = CC_DESIGN_DATE_AND_TIME_ASSIGNMENT ( #40, #101, ( #116 ) ) ;
#22 = DIRECTION ( 'NONE',  ( 1.000000000000000000, 0.000000000000000000, 0.000000000000000000 ) ) ;
#23 = DIRECTION ( 'NONE',  ( 1.156482317317871478E-16, -1.000000000000000000, -0.000000000000000000 ) ) ;
#24 = LOCAL_TIME ( 18, 14, 23.00000000000000000, #129 ) ;
#25 = PERSON_AND_ORGANIZATION_ROLE ( 'creator' ) ;
#26 =( NAMED_UNIT ( * ) PLANE_ANGLE_UNIT ( ) SI_UNIT ( $, .RADIAN. ) );
#27 = ORIENTED_EDGE ( 'NONE', *, *, #52, .T. ) ;
#28 = PERSON ( 'UNSPECIFIED', 'UNSPECIFIED', 'UNSPECIFIED', ('UNSPECIFIED'), ('UNSPECIFIED'), ('UNSPECIFIED') ) ;
#29 = AXIS2_PLACEMENT_3D ( 'NONE', #117, #133, #94 ) ;
#30 = AXIS2_PLACEMENT_3D ( 'NONE', #128, #72, #151 ) ;
#31 = EDGE_LOOP ( 'NONE', ( #14 ) ) ;
#32 = EDGE_CURVE ( 'NONE', #36, #36, #9, .T. ) ;
#33 = FACE_BOUND ( 'NONE', #159, .T. ) ;
#34 = CARTESIAN_POINT ( 'NONE',  ( -6.249999999999999112, 7.500000000000000000, 0.000000000000000000 ) ) ;
#35 = EDGE_CURVE ( 'NONE', #152, #152, #132, .T. ) ;
#36 = VERTEX_POINT ( 'NONE', #166 ) ;
#37 = LOCAL_TIME ( 18, 14, 23.00000000000000000, #119 ) ;
#38 = VERTEX_POINT ( 'NONE', #88 ) ;
#39 = DIRECTION ( 'NONE',  ( -0.000000000000000000, -1.000000000000000000, -0.000000000000000000 ) ) ;
#40 = DATE_AND_TIME ( #186, #37 ) ;
#41 = PRODUCT ( 'Loqueteau à rouleau 4', 'Loqueteau à rouleau 4', '', ( #192 ) ) ;
#42 = DIRECTION ( 'NONE',  ( 1.000000000000000000, 0.000000000000000000, 0.000000000000000000 ) ) ;
#43 = DATE_AND_TIME ( #45, #182 ) ;
#44 = AXIS2_PLACEMENT_3D ( 'NONE', #5, #115, #84 ) ;
#45 = CALENDAR_DATE ( 2020, 4, 12 ) ;
#46 = EDGE_LOOP ( 'NONE', ( #131 ) ) ;
#47 = DATE_AND_TIME ( #160, #24 ) ;
#48 = ADVANCED_FACE ( 'NONE', ( #181, #33 ), #180, .F. ) ;
#49 = ORGANIZATION ( 'UNSPECIFIED', 'UNSPECIFIED', '' ) ;
#50 = ORIENTED_EDGE ( 'NONE', *, *, #32, .F. ) ;
#51 = CYLINDRICAL_SURFACE ( 'NONE', #126, 1.500000000000000000 ) ;
#52 = EDGE_CURVE ( 'NONE', #69, #69, #110, .T. ) ;
#53 = DIRECTION ( 'NONE',  ( 0.000000000000000000, 0.000000000000000000, 1.000000000000000000 ) ) ;
#54 = CARTESIAN_POINT ( 'NONE',  ( -1.499999999999997780, -7.500000000000000000, 0.000000000000000000 ) ) ;
#55 = CC_DESIGN_APPROVAL ( #64, ( #198 ) ) ;
#56 = FACE_OUTER_BOUND ( 'NONE', #31, .T. ) ;
#57 = ADVANCED_FACE ( 'NONE', ( #56, #7 ), #118, .F. ) ;
#58 = DIRECTION ( 'NONE',  ( -1.156482317317871478E-16, 1.000000000000000000, 0.000000000000000000 ) ) ;
#59 = APPROVAL_STATUS ( 'not_yet_approved' ) ;
#60 = AXIS2_PLACEMENT_3D ( 'NONE', #86, #200, #138 ) ;
#61 = PERSON_AND_ORGANIZATION ( #28, #49 ) ;
#62 = COORDINATED_UNIVERSAL_TIME_OFFSET ( 1, 0, .AHEAD. ) ;
#63 = EDGE_LOOP ( 'NONE', ( #27 ) ) ;
#64 = APPROVAL ( #175, 'UNSPECIFIED' ) ;
#65 = EDGE_LOOP ( 'NONE', ( #50 ) ) ;
#66 = CC_DESIGN_PERSON_AND_ORGANIZATION_ASSIGNMENT ( #91, #25, ( #198 ) ) ;
#67 = CYLINDRICAL_SURFACE ( 'NONE', #176, 4.750000000000000000 ) ;
#68 = DIRECTION ( 'NONE',  ( 1.000000000000000000, 2.040851148208009970E-16, 0.000000000000000000 ) ) ;
#69 = VERTEX_POINT ( 'NONE', #136 ) ;
#70 = DIRECTION ( 'NONE',  ( 0.000000000000000000, 1.000000000000000000, 0.000000000000000000 ) ) ;
#71 = ADVANCED_FACE ( 'NONE', ( #202, #185 ), #67, .T. ) ;
#72 = DIRECTION ( 'NONE',  ( 1.156482317317871478E-16, -1.000000000000000000, -0.000000000000000000 ) ) ;
#73 = CONICAL_SURFACE ( 'NONE', #96, 4.249999999999997335, 0.7853981633974473908 ) ;
#74 = CARTESIAN_POINT ( 'NONE',  ( 2.749999999999997335, 7.500000000000001776, 0.000000000000000000 ) ) ;
#75 = CARTESIAN_POINT ( 'NONE',  ( 0.000000000000000000, 0.000000000000000000, 0.000000000000000000 ) ) ;
#76 = SECURITY_CLASSIFICATION_LEVEL ( 'unclassified' ) ;
#77 = CIRCLE ( 'NONE', #29, 1.500000000000000000 ) ;
#78 = EDGE_CURVE ( 'NONE', #38, #38, #77, .T. ) ;
#79 = EDGE_LOOP ( 'NONE', ( #177 ) ) ;
#80 = ORIENTED_EDGE ( 'NONE', *, *, #78, .T. ) ;
#81 = APPROVAL_DATE_TIME ( #47, #108 ) ;
#82 = APPROVAL_STATUS ( 'not_yet_approved' ) ;
#83 = FACE_OUTER_BOUND ( 'NONE', #65, .T. ) ;
#84 = DIRECTION ( 'NONE',  ( -1.000000000000000000, -2.040851148208009231E-16, 0.000000000000000000 ) ) ;
#85 = DESIGN_CONTEXT ( 'detailed design', #196, 'design' ) ;
#86 = CARTESIAN_POINT ( 'NONE',  ( -1.499999999999999556, 6.999999999999999112, 0.000000000000000000 ) ) ;
#87 = DIRECTION ( 'NONE',  ( -1.156482317317871478E-16, 1.000000000000000000, 0.000000000000000000 ) ) ;
#88 = CARTESIAN_POINT ( 'NONE',  ( 2.168404344971008868E-15, -7.500000000000000000, 0.000000000000000000 ) ) ;
#89 = COORDINATED_UNIVERSAL_TIME_OFFSET ( 1, 0, .AHEAD. ) ;
#90 = PERSON_AND_ORGANIZATION_ROLE ( 'design_owner' ) ;
#91 = PERSON_AND_ORGANIZATION ( #28, #49 ) ;
#92 = CONICAL_SURFACE ( 'NONE', #150, 4.750000000000000000, 0.7853981633974500554 ) ;
#93 = ORIENTED_EDGE ( 'NONE', *, *, #145, .T. ) ;
#94 = DIRECTION ( 'NONE',  ( 1.000000000000000000, 0.000000000000000000, 0.000000000000000000 ) ) ;
#95 = CARTESIAN_POINT ( 'NONE',  ( -1.499999999999999556, 6.999999999999999112, 0.000000000000000000 ) ) ;
#96 = AXIS2_PLACEMENT_3D ( 'NONE', #54, #114, #53 ) ;
#97 = DIRECTION ( 'NONE',  ( 1.000000000000000000, 1.826024711554533667E-16, 0.000000000000000000 ) ) ;
#98 = ADVANCED_FACE ( 'NONE', ( #199, #99 ), #92, .T. ) ;
#99 = FACE_OUTER_BOUND ( 'NONE', #3, .T. ) ;
#100 = FACE_OUTER_BOUND ( 'NONE', #193, .T. ) ;
#101 = DATE_TIME_ROLE ( 'classification_date' ) ;
#102 = ADVANCED_FACE ( 'NONE', ( #83, #100 ), #51, .F. ) ;
#103 = PERSON_AND_ORGANIZATION ( #28, #49 ) ;
#104 = COORDINATED_UNIVERSAL_TIME_OFFSET ( 1, 0, .AHEAD. ) ;
#105 = MANIFOLD_SOLID_BREP ( 'Chanfrein1', #194 ) ;
#106 =( GEOMETRIC_REPRESENTATION_CONTEXT ( 3 ) GLOBAL_UNCERTAINTY_ASSIGNED_CONTEXT ( ( #154 ) ) GLOBAL_UNIT_ASSIGNED_CONTEXT ( ( #155, #26, #124 ) ) REPRESENTATION_CONTEXT ( 'NONE', 'WORKASPACE' ) );
#107 = PERSON_AND_ORGANIZATION ( #28, #49 ) ;
#108 = APPROVAL ( #82, 'UNSPECIFIED' ) ;
#109 = SHAPE_DEFINITION_REPRESENTATION ( #184, #134 ) ;
#110 = CIRCLE ( 'NONE', #153, 4.750000000000000000 ) ;
#111 = APPROVAL_PERSON_ORGANIZATION ( #170, #108, #148 ) ;
#112 = EDGE_LOOP ( 'NONE', ( #197 ) ) ;
#113 = EDGE_CURVE ( 'NONE', #171, #171, #137, .T. ) ;
#114 = DIRECTION ( 'NONE',  ( 0.000000000000000000, 1.000000000000000000, 0.000000000000000000 ) ) ;
#115 = DIRECTION ( 'NONE',  ( 1.156482317317871478E-16, -1.000000000000000000, -0.000000000000000000 ) ) ;
#116 = SECURITY_CLASSIFICATION ( '', '', #76 ) ;
#117 = CARTESIAN_POINT ( 'NONE',  ( -1.499999999999997780, -7.500000000000000000, 0.000000000000000000 ) ) ;
#118 = PLANE ( 'NONE',  #1 ) ;
#119 = COORDINATED_UNIVERSAL_TIME_OFFSET ( 1, 0, .AHEAD. ) ;
#120 = CC_DESIGN_PERSON_AND_ORGANIZATION_ASSIGNMENT ( #203, #90, ( #41 ) ) ;
#121 = PERSON_AND_ORGANIZATION_ROLE ( 'creator' ) ;
#122 = LOCAL_TIME ( 18, 14, 23.00000000000000000, #104 ) ;
#123 = DATE_TIME_ROLE ( 'creation_date' ) ;
#124 =( NAMED_UNIT ( * ) SI_UNIT ( $, .STERADIAN. ) SOLID_ANGLE_UNIT ( ) );
#125 = APPLICATION_PROTOCOL_DEFINITION ( 'international standard', 'config_control_design', 1994, #196 ) ;
#126 = AXIS2_PLACEMENT_3D ( 'NONE', #168, #23, #22 ) ;
#127 = ADVANCED_FACE ( 'NONE', ( #164, #20 ), #73, .T. ) ;
#128 = CARTESIAN_POINT ( 'NONE',  ( -1.499999999999999556, 7.500000000000000000, 0.000000000000000000 ) ) ;
#129 = COORDINATED_UNIVERSAL_TIME_OFFSET ( 1, 0, .AHEAD. ) ;
#130 = ORIENTED_EDGE ( 'NONE', *, *, #113, .F. ) ;
#131 = ORIENTED_EDGE ( 'NONE', *, *, #32, .T. ) ;
#132 = CIRCLE ( 'NONE', #60, 4.750000000000000000 ) ;
#133 = DIRECTION ( 'NONE',  ( 1.156482317317871478E-16, -1.000000000000000000, -0.000000000000000000 ) ) ;
#134 = ADVANCED_BREP_SHAPE_REPRESENTATION ( 'Loqueteau Ó rouleau 4', ( #105, #157 ), #106 ) ;
#135 = CARTESIAN_POINT ( 'NONE',  ( -1.499999999999999556, 7.500000000000000888, 0.000000000000000000 ) ) ;
#136 = CARTESIAN_POINT ( 'NONE',  ( -1.499999999999997780, -6.999999999999996447, 4.750000000000000000 ) ) ;
#137 = CIRCLE ( 'NONE', #165, 4.249999999999996447 ) ;
#138 = DIRECTION ( 'NONE',  ( 0.000000000000000000, 0.000000000000000000, -1.000000000000000000 ) ) ;
#139 = DIRECTION ( 'NONE',  ( 1.156482317317871478E-16, -1.000000000000000000, -0.000000000000000000 ) ) ;
#140 = APPLICATION_PROTOCOL_DEFINITION ( 'international standard', 'config_control_design', 1994, #179 ) ;
#141 = APPROVAL_ROLE ( '' ) ;
#142 = DIRECTION ( 'NONE',  ( 0.000000000000000000, 0.000000000000000000, 1.000000000000000000 ) ) ;
#143 = PERSON_AND_ORGANIZATION ( #28, #49 ) ;
#144 = APPROVAL_PERSON_ORGANIZATION ( #61, #209, #141 ) ;
#145 = EDGE_CURVE ( 'NONE', #205, #205, #11, .T. ) ;
#146 = EDGE_LOOP ( 'NONE', ( #130 ) ) ;
#147 = AXIS2_PLACEMENT_3D ( 'NONE', #201, #58, #178 ) ;
#148 = APPROVAL_ROLE ( '' ) ;
#149 = DIRECTION ( 'NONE',  ( 1.156482317317871478E-16, -1.000000000000000000, -0.000000000000000000 ) ) ;
#150 = AXIS2_PLACEMENT_3D ( 'NONE', #95, #39, #162 ) ;
#151 = DIRECTION ( 'NONE',  ( 1.000000000000000000, 0.000000000000000000, 0.000000000000000000 ) ) ;
#152 = VERTEX_POINT ( 'NONE', #8 ) ;
#153 = AXIS2_PLACEMENT_3D ( 'NONE', #183, #70, #19 ) ;
#154 = UNCERTAINTY_MEASURE_WITH_UNIT (LENGTH_MEASURE( 1.000000000000000082E-05 ), #155, 'distance_accuracy_value', 'NONE');
#155 =( LENGTH_UNIT ( ) NAMED_UNIT ( * ) SI_UNIT ( .MILLI., .METRE. ) );
#156 = PERSON_AND_ORGANIZATION_ROLE ( 'design_supplier' ) ;
#157 = AXIS2_PLACEMENT_3D ( 'NONE', #75, #142, #42 ) ;
#158 = APPROVAL_ROLE ( '' ) ;
#159 = EDGE_LOOP ( 'NONE', ( #195 ) ) ;
#160 = CALENDAR_DATE ( 2020, 4, 12 ) ;
#161 = PRODUCT_RELATED_PRODUCT_CATEGORY ( 'detail', '', ( #41 ) ) ;
#162 = DIRECTION ( 'NONE',  ( 0.000000000000000000, 0.000000000000000000, -1.000000000000000000 ) ) ;
#163 = CC_DESIGN_PERSON_AND_ORGANIZATION_ASSIGNMENT ( #13, #156, ( #198 ) ) ;
#164 = FACE_OUTER_BOUND ( 'NONE', #79, .T. ) ;
#165 = AXIS2_PLACEMENT_3D ( 'NONE', #135, #87, #68 ) ;
#166 = CARTESIAN_POINT ( 'NONE',  ( 4.336808689942017736E-16, 7.500000000000000000, 0.000000000000000000 ) ) ;
#167 = CARTESIAN_POINT ( 'NONE',  ( -1.499999999999997780, -7.500000000000000000, 0.000000000000000000 ) ) ;
#168 = CARTESIAN_POINT ( 'NONE',  ( -1.499999999999997780, -7.500000000000000000, 0.000000000000000000 ) ) ;
#169 = LOCAL_TIME ( 18, 14, 23.00000000000000000, #62 ) ;
#170 = PERSON_AND_ORGANIZATION ( #28, #49 ) ;
#171 = VERTEX_POINT ( 'NONE', #74 ) ;
#172 = CC_DESIGN_PERSON_AND_ORGANIZATION_ASSIGNMENT ( #103, #121, ( #206 ) ) ;
#173 = APPROVAL_DATE_TIME ( #190, #64 ) ;
#174 = DATE_AND_TIME ( #191, #169 ) ;
#175 = APPROVAL_STATUS ( 'not_yet_approved' ) ;
#176 = AXIS2_PLACEMENT_3D ( 'NONE', #167, #149, #97 ) ;
#177 = ORIENTED_EDGE ( 'NONE', *, *, #52, .F. ) ;
#178 = DIRECTION ( 'NONE',  ( -1.000000000000000000, -1.156482317317871478E-16, 0.000000000000000000 ) ) ;
#179 = APPLICATION_CONTEXT ( 'configuration controlled 3d designs of mechanical parts and assemblies' ) ;
#180 = PLANE ( 'NONE',  #147 ) ;
#181 = FACE_OUTER_BOUND ( 'NONE', #208, .T. ) ;
#182 = LOCAL_TIME ( 18, 14, 23.00000000000000000, #89 ) ;
#183 = CARTESIAN_POINT ( 'NONE',  ( -1.499999999999997780, -6.999999999999996447, 0.000000000000000000 ) ) ;
#184 = PRODUCT_DEFINITION_SHAPE ( 'NONE', 'NONE',  #206 ) ;
#185 = FACE_OUTER_BOUND ( 'NONE', #112, .T. ) ;
#186 = CALENDAR_DATE ( 2020, 4, 12 ) ;
#187 = CC_DESIGN_SECURITY_CLASSIFICATION ( #116, ( #198 ) ) ;
#188 = CALENDAR_DATE ( 2020, 4, 12 ) ;
#189 = CC_DESIGN_DATE_AND_TIME_ASSIGNMENT ( #174, #123, ( #206 ) ) ;
#190 = DATE_AND_TIME ( #188, #122 ) ;
#191 = CALENDAR_DATE ( 2020, 4, 12 ) ;
#192 = MECHANICAL_CONTEXT ( 'NONE', #179, 'mechanical' ) ;
#193 = EDGE_LOOP ( 'NONE', ( #80 ) ) ;
#194 = CLOSED_SHELL ( 'NONE', ( #57, #71, #48, #102, #127, #98 ) ) ;
#195 = ORIENTED_EDGE ( 'NONE', *, *, #78, .F. ) ;
#196 = APPLICATION_CONTEXT ( 'configuration controlled 3d designs of mechanical parts and assemblies' ) ;
#197 = ORIENTED_EDGE ( 'NONE', *, *, #35, .T. ) ;
#198 = PRODUCT_DEFINITION_FORMATION_WITH_SPECIFIED_SOURCE ( 'ANY', '', #41, .NOT_KNOWN. ) ;
#199 = FACE_BOUND ( 'NONE', #146, .T. ) ;
#200 = DIRECTION ( 'NONE',  ( -0.000000000000000000, -1.000000000000000000, -0.000000000000000000 ) ) ;
#201 = CARTESIAN_POINT ( 'NONE',  ( -2.999999999999997780, -7.500000000000000000, 0.000000000000000000 ) ) ;
#202 = FACE_OUTER_BOUND ( 'NONE', #63, .T. ) ;
#203 = PERSON_AND_ORGANIZATION ( #28, #49 ) ;
#204 = APPROVAL_DATE_TIME ( #43, #209 ) ;
#205 = VERTEX_POINT ( 'NONE', #12 ) ;
#206 = PRODUCT_DEFINITION ( 'UNKNOWN', '', #198, #85 ) ;
#207 = PERSON_AND_ORGANIZATION_ROLE ( 'classification_officer' ) ;
#208 = EDGE_LOOP ( 'NONE', ( #93 ) ) ;
#209 = APPROVAL ( #59, 'UNSPECIFIED' ) ;
ENDSEC;
END-ISO-10303-21;
