ISO-10303-21;
HEADER;
FILE_DESCRIPTION (( 'STEP AP214' ),
    '1' );
FILE_NAME ('REM_USI_02.STEP',
    '2020-12-17T09:00:25',
    ( '' ),
    ( '' ),
    'SwSTEP 2.0',
    'SolidWorks 2020',
    '' );
FILE_SCHEMA (( 'AUTOMOTIVE_DESIGN' ));
ENDSEC;

DATA;
#1 =( NAMED_UNIT ( * ) PLANE_ANGLE_UNIT ( ) SI_UNIT ( $, .RADIAN. ) );
#2 = CLOSED_SHELL ( 'NONE', ( #175, #158, #92, #218, #302, #70, #310, #260, #130, #105, #59 ) ) ;
#3 = SURFACE_STYLE_FILL_AREA ( #28 ) ;
#4 = SURFACE_SIDE_STYLE ('',( #3 ) ) ;
#5 = ORIENTED_EDGE ( 'NONE', *, *, #230, .T. ) ;
#6 = ORIENTED_EDGE ( 'NONE', *, *, #243, .F. ) ;
#7 = DIRECTION ( 'NONE',  ( 0.000000000000000000, 0.000000000000000000, 1.000000000000000000 ) ) ;
#8 = ORIENTED_EDGE ( 'NONE', *, *, #230, .F. ) ;
#9 = ORIENTED_EDGE ( 'NONE', *, *, #315, .T. ) ;
#10 = PRODUCT ( 'REM_USI_02', 'REM_USI_02', '', ( #195 ) ) ;
#11 = LINE ( 'NONE', #314, #109 ) ;
#12 = CIRCLE ( 'NONE', #250, 5.999999999999998224 ) ;
#13 = FACE_OUTER_BOUND ( 'NONE', #103, .T. ) ;
#14 = FACE_OUTER_BOUND ( 'NONE', #98, .T. ) ;
#15 = FACE_OUTER_BOUND ( 'NONE', #252, .T. ) ;
#16 = FACE_OUTER_BOUND ( 'NONE', #132, .T. ) ;
#17 = PRODUCT_DEFINITION_SHAPE ( 'NONE', 'NONE',  #318 ) ;
#18 = DIRECTION ( 'NONE',  ( 1.000000000000000000, -0.000000000000000000, 1.224646799147353207E-16 ) ) ;
#19 = PRESENTATION_STYLE_ASSIGNMENT (( #220 ) ) ;
#20 = EDGE_CURVE ( 'NONE', #189, #282, #12, .T. ) ;
#21 = EDGE_CURVE ( 'NONE', #79, #178, #223, .T. ) ;
#22 = AXIS2_PLACEMENT_3D ( 'NONE', #294, #319, #47 ) ;
#23 = CARTESIAN_POINT ( 'NONE',  ( -12.54559519276203439, 12.26701645441195510, -43.22463921736924419 ) ) ;
#24 = CARTESIAN_POINT ( 'NONE',  ( -12.54559519276203439, 12.26701645441195510, -47.22463921736924419 ) ) ;
#25 =( NAMED_UNIT ( * ) PLANE_ANGLE_UNIT ( ) SI_UNIT ( $, .RADIAN. ) );
#26 = EDGE_LOOP ( 'NONE', ( #29, #74, #205, #301 ) ) ;
#27 = CIRCLE ( 'NONE', #63, 3.000000000000037303 ) ;
#28 = FILL_AREA_STYLE ('',( #152 ) ) ;
#29 = ORIENTED_EDGE ( 'NONE', *, *, #210, .F. ) ;
#30 = ORIENTED_EDGE ( 'NONE', *, *, #187, .T. ) ;
#31 = DIRECTION ( 'NONE',  ( 0.000000000000000000, 0.000000000000000000, 1.000000000000000000 ) ) ;
#32 = ORIENTED_EDGE ( 'NONE', *, *, #20, .T. ) ;
#33 = EDGE_LOOP ( 'NONE', ( #188, #202, #182, #49 ) ) ;
#34 = CARTESIAN_POINT ( 'NONE',  ( -12.54559519276203439, 38.26701645441195154, -49.22463921736924419 ) ) ;
#35 = EDGE_CURVE ( 'NONE', #209, #95, #11, .T. ) ;
#36 = DIRECTION ( 'NONE',  ( 0.000000000000000000, 1.000000000000000000, 0.000000000000000000 ) ) ;
#37 = CARTESIAN_POINT ( 'NONE',  ( -12.54559519276203439, 13.26701645441192845, -43.22463921736924419 ) ) ;
#38 = AXIS2_PLACEMENT_3D ( 'NONE', #23, #268, #169 ) ;
#39 = PRODUCT_DEFINITION_CONTEXT ( 'detailed design', #167, 'design' ) ;
#40 = CARTESIAN_POINT ( 'NONE',  ( -12.54559519276203439, 13.26701645441192845, -43.22463921736924419 ) ) ;
#41 =( GEOMETRIC_REPRESENTATION_CONTEXT ( 3 ) GLOBAL_UNCERTAINTY_ASSIGNED_CONTEXT ( ( #107 ) ) GLOBAL_UNIT_ASSIGNED_CONTEXT ( ( #177, #25, #208 ) ) REPRESENTATION_CONTEXT ( 'NONE', 'WORKASPACE' ) );
#42 = PLANE ( 'NONE',  #206 ) ;
#43 = AXIS2_PLACEMENT_3D ( 'NONE', #114, #112, #62 ) ;
#44 = LINE ( 'NONE', #172, #140 ) ;
#45 =( NAMED_UNIT ( * ) SI_UNIT ( $, .STERADIAN. ) SOLID_ANGLE_UNIT ( ) );
#46 = AXIS2_PLACEMENT_3D ( 'NONE', #217, #36, #258 ) ;
#47 = DIRECTION ( 'NONE',  ( 0.000000000000000000, 0.000000000000000000, 1.000000000000000000 ) ) ;
#48 = EDGE_CURVE ( 'NONE', #304, #50, #60, .T. ) ;
#49 = ORIENTED_EDGE ( 'NONE', *, *, #48, .F. ) ;
#50 = VERTEX_POINT ( 'NONE', #100 ) ;
#51 = ORIENTED_EDGE ( 'NONE', *, *, #48, .T. ) ;
#52 = FACE_OUTER_BOUND ( 'NONE', #26, .T. ) ;
#53 = EDGE_LOOP ( 'NONE', ( #229, #147, #51, #166 ) ) ;
#54 = ORIENTED_EDGE ( 'NONE', *, *, #308, .T. ) ;
#55 = ORIENTED_EDGE ( 'NONE', *, *, #121, .F. ) ;
#56 = PRESENTATION_LAYER_ASSIGNMENT (  '', '', ( #203 ) ) ;
#57 = DIRECTION ( 'NONE',  ( 0.000000000000000000, 0.000000000000000000, 1.000000000000000000 ) ) ;
#58 = DIRECTION ( 'NONE',  ( 0.000000000000000000, 1.000000000000000000, 0.000000000000000000 ) ) ;
#59 = ADVANCED_FACE ( 'NONE', ( #211 ), #262, .T. ) ;
#60 = LINE ( 'NONE', #288, #234 ) ;
#61 = DIRECTION ( 'NONE',  ( 0.000000000000000000, -1.000000000000000000, 0.000000000000000000 ) ) ;
#62 = DIRECTION ( 'NONE',  ( 0.000000000000000000, 0.000000000000000000, 1.000000000000000000 ) ) ;
#63 = AXIS2_PLACEMENT_3D ( 'NONE', #122, #299, #300 ) ;
#64 = FACE_OUTER_BOUND ( 'NONE', #204, .T. ) ;
#65 = DIRECTION ( 'NONE',  ( 0.000000000000000000, -0.000000000000000000, -1.000000000000000000 ) ) ;
#66 = CARTESIAN_POINT ( 'NONE',  ( -12.54559519276203439, 38.26701645441195154, -43.22463921736924419 ) ) ;
#67 = DIRECTION ( 'NONE',  ( -0.000000000000000000, 1.000000000000000000, -0.000000000000000000 ) ) ;
#68 = VERTEX_POINT ( 'NONE', #261 ) ;
#69 = VERTEX_POINT ( 'NONE', #34 ) ;
#70 = ADVANCED_FACE ( 'NONE', ( #312, #15 ), #42, .F. ) ;
#71 = APPLICATION_PROTOCOL_DEFINITION ( 'draft international standard', 'automotive_design', 1998, #199 ) ;
#72 = ORIENTED_EDGE ( 'NONE', *, *, #210, .T. ) ;
#73 = CIRCLE ( 'NONE', #22, 5.999999999999998224 ) ;
#74 = ORIENTED_EDGE ( 'NONE', *, *, #20, .F. ) ;
#75 = ORIENTED_EDGE ( 'NONE', *, *, #315, .F. ) ;
#76 = DIRECTION ( 'NONE',  ( -0.000000000000000000, -1.000000000000000000, -0.000000000000000000 ) ) ;
#77 = AXIS2_PLACEMENT_3D ( 'NONE', #297, #61, #65 ) ;
#78 = DIRECTION ( 'NONE',  ( 0.000000000000000000, -1.000000000000000000, 0.000000000000000000 ) ) ;
#79 = VERTEX_POINT ( 'NONE', #289 ) ;
#80 =( GEOMETRIC_REPRESENTATION_CONTEXT ( 3 ) GLOBAL_UNCERTAINTY_ASSIGNED_CONTEXT ( ( #160 ) ) GLOBAL_UNIT_ASSIGNED_CONTEXT ( ( #227, #125, #179 ) ) REPRESENTATION_CONTEXT ( 'NONE', 'WORKASPACE' ) );
#81 = DIRECTION ( 'NONE',  ( 0.000000000000000000, 1.000000000000000000, 0.000000000000000000 ) ) ;
#82 = DIRECTION ( 'NONE',  ( 8.659560562354903276E-17, 0.7071067811865500152, -0.7071067811865451302 ) ) ;
#83 = FILL_AREA_STYLE_COLOUR ( '', #150 ) ;
#84 = EDGE_CURVE ( 'NONE', #95, #50, #170, .T. ) ;
#85 = DIRECTION ( 'NONE',  ( 0.000000000000000000, 0.000000000000000000, -1.000000000000000000 ) ) ;
#86 = EDGE_CURVE ( 'NONE', #50, #95, #213, .T. ) ;
#87 = CIRCLE ( 'NONE', #101, 5.999999999999998224 ) ;
#88 = DIRECTION ( 'NONE',  ( -0.000000000000000000, 1.000000000000000000, -0.000000000000000000 ) ) ;
#89 = CARTESIAN_POINT ( 'NONE',  ( -12.54559519276203439, 59.26701645441195154, -43.22463921736924419 ) ) ;
#90 = CARTESIAN_POINT ( 'NONE',  ( -12.54559519276203439, 12.26701645441195510, -40.22463921736920867 ) ) ;
#91 = TOROIDAL_SURFACE ( 'NONE', #284, 4.500000000000003553, 0.5000000000000000000 ) ;
#92 = ADVANCED_FACE ( 'NONE', ( #14 ), #104, .T. ) ;
#93 = ORIENTED_EDGE ( 'NONE', *, *, #21, .F. ) ;
#94 = CARTESIAN_POINT ( 'NONE',  ( -12.54559519276203439, 59.26701645441195154, -37.22463921736924419 ) ) ;
#95 = VERTEX_POINT ( 'NONE', #194 ) ;
#96 = VERTEX_POINT ( 'NONE', #317 ) ;
#97 = AXIS2_PLACEMENT_3D ( 'NONE', #37, #81, #196 ) ;
#98 = EDGE_LOOP ( 'NONE', ( #151, #54, #276, #6 ) ) ;
#99 = CARTESIAN_POINT ( 'NONE',  ( -12.54559519276203439, 12.26701645441195510, -43.22463921736924419 ) ) ;
#100 = CARTESIAN_POINT ( 'NONE',  ( -12.54559519276203439, 13.26701645441192845, -39.22463921736923709 ) ) ;
#101 = AXIS2_PLACEMENT_3D ( 'NONE', #89, #117, #200 ) ;
#102 = UNCERTAINTY_MEASURE_WITH_UNIT (LENGTH_MEASURE( 1.000000000000000082E-05 ), #113, 'distance_accuracy_value', 'NONE');
#103 = EDGE_LOOP ( 'NONE', ( #231, #248 ) ) ;
#104 = CYLINDRICAL_SURFACE ( 'NONE', #131, 4.000000000000003553 ) ;
#105 = ADVANCED_FACE ( 'NONE', ( #264 ), #257, .F. ) ;
#106 = SHAPE_DEFINITION_REPRESENTATION ( #17, #270 ) ;
#107 = UNCERTAINTY_MEASURE_WITH_UNIT (LENGTH_MEASURE( 1.000000000000000082E-05 ), #177, 'distance_accuracy_value', 'NONE');
#108 = DIRECTION ( 'NONE',  ( 0.000000000000000000, 1.000000000000000000, 0.000000000000000000 ) ) ;
#109 = VECTOR ( 'NONE', #82, 1000.000000000000114 ) ;
#110 = CARTESIAN_POINT ( 'NONE',  ( -12.54559519276203439, 38.26701645441195154, -38.72463921736923709 ) ) ;
#111 = EDGE_CURVE ( 'NONE', #209, #304, #242, .T. ) ;
#112 = DIRECTION ( 'NONE',  ( -1.000000000000000000, 0.000000000000000000, 0.000000000000000000 ) ) ;
#113 =( LENGTH_UNIT ( ) NAMED_UNIT ( * ) SI_UNIT ( .MILLI., .METRE. ) );
#114 = CARTESIAN_POINT ( 'NONE',  ( -12.54559519276203439, 37.76701645441195154, -38.72463921736923709 ) ) ;
#115 = AXIS2_PLACEMENT_3D ( 'NONE', #265, #138, #57 ) ;
#116 = CIRCLE ( 'NONE', #293, 4.000000000000003553 ) ;
#117 = DIRECTION ( 'NONE',  ( 0.000000000000000000, 1.000000000000000000, 0.000000000000000000 ) ) ;
#118 = EDGE_CURVE ( 'NONE', #189, #69, #286, .T. ) ;
#119 = AXIS2_PLACEMENT_3D ( 'NONE', #201, #120, #31 ) ;
#120 = DIRECTION ( 'NONE',  ( -0.000000000000000000, -1.000000000000000000, -0.000000000000000000 ) ) ;
#121 = EDGE_CURVE ( 'NONE', #127, #68, #116, .T. ) ;
#122 = CARTESIAN_POINT ( 'NONE',  ( -12.54559519276203439, 12.26701645441195510, -43.22463921736924419 ) ) ;
#123 = ORIENTED_EDGE ( 'NONE', *, *, #221, .T. ) ;
#124 = CYLINDRICAL_SURFACE ( 'NONE', #153, 5.999999999999998224 ) ;
#125 =( NAMED_UNIT ( * ) PLANE_ANGLE_UNIT ( ) SI_UNIT ( $, .RADIAN. ) );
#126 = AXIS2_PLACEMENT_3D ( 'NONE', #184, #186, #7 ) ;
#127 = VERTEX_POINT ( 'NONE', #135 ) ;
#128 = SURFACE_STYLE_USAGE ( .BOTH. , #4 ) ;
#129 = ORIENTED_EDGE ( 'NONE', *, *, #187, .F. ) ;
#130 = ADVANCED_FACE ( 'NONE', ( #13 ), #295, .T. ) ;
#131 = AXIS2_PLACEMENT_3D ( 'NONE', #191, #216, #316 ) ;
#132 = EDGE_LOOP ( 'NONE', ( #93, #123, #55, #8 ) ) ;
#133 = CARTESIAN_POINT ( 'NONE',  ( -12.54559519276203439, 59.26701645441195154, -43.22463921736924419 ) ) ;
#134 = CIRCLE ( 'NONE', #126, 4.500000000000003553 ) ;
#135 = CARTESIAN_POINT ( 'NONE',  ( -12.54559519276203439, 37.76701645441195154, -39.22463921736923709 ) ) ;
#136 =( GEOMETRIC_REPRESENTATION_CONTEXT ( 3 ) GLOBAL_UNCERTAINTY_ASSIGNED_CONTEXT ( ( #102 ) ) GLOBAL_UNIT_ASSIGNED_CONTEXT ( ( #113, #1, #45 ) ) REPRESENTATION_CONTEXT ( 'NONE', 'WORKASPACE' ) );
#137 = DIRECTION ( 'NONE',  ( 0.000000000000000000, 0.000000000000000000, 1.000000000000000000 ) ) ;
#138 = DIRECTION ( 'NONE',  ( 0.000000000000000000, 1.000000000000000000, 0.000000000000000000 ) ) ;
#139 = DIRECTION ( 'NONE',  ( 0.000000000000000000, 0.000000000000000000, -1.000000000000000000 ) ) ;
#140 = VECTOR ( 'NONE', #142, 1000.000000000000000 ) ;
#141 = CARTESIAN_POINT ( 'NONE',  ( -12.54559519276203439, 79.23757920288909418, -43.22463921736924419 ) ) ;
#142 = DIRECTION ( 'NONE',  ( -0.000000000000000000, 1.000000000000000000, -0.000000000000000000 ) ) ;
#143 = DIRECTION ( 'NONE',  ( 0.000000000000000000, 1.000000000000000000, 0.000000000000000000 ) ) ;
#144 = DIRECTION ( 'NONE',  ( 0.000000000000000000, 0.000000000000000000, 1.000000000000000000 ) ) ;
#145 = AXIS2_PLACEMENT_3D ( 'NONE', #40, #238, #139 ) ;
#146 = LINE ( 'NONE', #197, #278 ) ;
#147 = ORIENTED_EDGE ( 'NONE', *, *, #287, .F. ) ;
#148 = CARTESIAN_POINT ( 'NONE',  ( 0.000000000000000000, 0.000000000000000000, 0.000000000000000000 ) ) ;
#149 = EDGE_LOOP ( 'NONE', ( #9, #156 ) ) ;
#150 = COLOUR_RGB ( '',0.7921568627450980005, 0.8196078431372548767, 0.9333333333333333481 ) ;
#151 = ORIENTED_EDGE ( 'NONE', *, *, #86, .T. ) ;
#152 = FILL_AREA_STYLE_COLOUR ( '', #168 ) ;
#153 = AXIS2_PLACEMENT_3D ( 'NONE', #233, #303, #253 ) ;
#154 = EDGE_CURVE ( 'NONE', #96, #69, #207, .T. ) ;
#155 = ORIENTED_EDGE ( 'NONE', *, *, #84, .T. ) ;
#156 = ORIENTED_EDGE ( 'NONE', *, *, #21, .T. ) ;
#157 = CARTESIAN_POINT ( 'NONE',  ( -12.54559519276203439, 38.26701645441195154, -43.22463921736924419 ) ) ;
#158 = ADVANCED_FACE ( 'NONE', ( #16 ), #91, .F. ) ;
#159 = APPLICATION_PROTOCOL_DEFINITION ( 'draft international standard', 'automotive_design', 1998, #167 ) ;
#160 = UNCERTAINTY_MEASURE_WITH_UNIT (LENGTH_MEASURE( 1.000000000000000082E-05 ), #227, 'distance_accuracy_value', 'NONE');
#161 = DIRECTION ( 'NONE',  ( -0.000000000000000000, -1.000000000000000000, -0.000000000000000000 ) ) ;
#162 = AXIS2_PLACEMENT_3D ( 'NONE', #255, #277, #181 ) ;
#163 = DIRECTION ( 'NONE',  ( 0.000000000000000000, 0.7071067811865500152, 0.7071067811865451302 ) ) ;
#164 = CIRCLE ( 'NONE', #43, 0.5000000000000004441 ) ;
#165 = ORIENTED_EDGE ( 'NONE', *, *, #308, .F. ) ;
#166 = ORIENTED_EDGE ( 'NONE', *, *, #84, .F. ) ;
#167 = APPLICATION_CONTEXT ( 'automotive_design' ) ;
#168 = COLOUR_RGB ( '',0.7921568627450980005, 0.8196078431372548767, 0.9333333333333333481 ) ;
#169 = DIRECTION ( 'NONE',  ( 0.000000000000000000, 0.000000000000000000, 1.000000000000000000 ) ) ;
#170 = CIRCLE ( 'NONE', #97, 4.000000000000003553 ) ;
#171 = AXIS2_PLACEMENT_3D ( 'NONE', #322, #88, #305 ) ;
#172 = CARTESIAN_POINT ( 'NONE',  ( -12.54559519276203439, 12.26701645441195510, -39.22463921736923709 ) ) ;
#173 = DIRECTION ( 'NONE',  ( 0.000000000000000000, 0.000000000000000000, -1.000000000000000000 ) ) ;
#174 = VECTOR ( 'NONE', #67, 1000.000000000000000 ) ;
#175 = ADVANCED_FACE ( 'NONE', ( #292 ), #198, .T. ) ;
#176 = DIRECTION ( 'NONE',  ( 0.000000000000000000, 1.000000000000000000, 0.000000000000000000 ) ) ;
#177 =( LENGTH_UNIT ( ) NAMED_UNIT ( * ) SI_UNIT ( .MILLI., .METRE. ) );
#178 = VERTEX_POINT ( 'NONE', #110 ) ;
#179 =( NAMED_UNIT ( * ) SI_UNIT ( $, .STERADIAN. ) SOLID_ANGLE_UNIT ( ) );
#180 = MANIFOLD_SOLID_BREP ( 'Chanfrein1', #2 ) ;
#181 = DIRECTION ( 'NONE',  ( 0.1087875077393899020, 0.000000000000000000, 0.9940650271284329209 ) ) ;
#182 = ORIENTED_EDGE ( 'NONE', *, *, #86, .F. ) ;
#183 = AXIS2_PLACEMENT_3D ( 'NONE', #141, #269, #85 ) ;
#184 = CARTESIAN_POINT ( 'NONE',  ( -12.54559519276203439, 38.26701645441195154, -43.22463921736924419 ) ) ;
#185 = EDGE_LOOP ( 'NONE', ( #237, #75, #5, #256 ) ) ;
#186 = DIRECTION ( 'NONE',  ( 0.000000000000000000, 1.000000000000000000, 0.000000000000000000 ) ) ;
#187 = EDGE_CURVE ( 'NONE', #282, #189, #87, .T. ) ;
#188 = ORIENTED_EDGE ( 'NONE', *, *, #111, .F. ) ;
#189 = VERTEX_POINT ( 'NONE', #226 ) ;
#190 = EDGE_CURVE ( 'NONE', #69, #96, #73, .T. ) ;
#191 = CARTESIAN_POINT ( 'NONE',  ( -12.54559519276203439, 12.26701645441195510, -43.22463921736924419 ) ) ;
#192 = ORIENTED_EDGE ( 'NONE', *, *, #121, .T. ) ;
#193 = PRODUCT_DEFINITION_FORMATION_WITH_SPECIFIED_SOURCE ( 'ANY', '', #10, .NOT_KNOWN. ) ;
#194 = CARTESIAN_POINT ( 'NONE',  ( -12.54559519276203439, 13.26701645441192845, -47.22463921736924419 ) ) ;
#195 = PRODUCT_CONTEXT ( 'NONE', #199, 'mechanical' ) ;
#196 = DIRECTION ( 'NONE',  ( 0.000000000000000000, 0.000000000000000000, -1.000000000000000000 ) ) ;
#197 = CARTESIAN_POINT ( 'NONE',  ( -12.54559519276203439, 79.23757920288909418, -37.22463921736924419 ) ) ;
#198 = CONICAL_SURFACE ( 'NONE', #38, 3.000000000000037303, 0.7853981633974447263 ) ;
#199 = APPLICATION_CONTEXT ( 'automotive_design' ) ;
#200 = DIRECTION ( 'NONE',  ( 0.000000000000000000, 0.000000000000000000, 1.000000000000000000 ) ) ;
#201 = CARTESIAN_POINT ( 'NONE',  ( -12.54559519276203439, 37.76701645441195154, -43.22463921736924419 ) ) ;
#202 = ORIENTED_EDGE ( 'NONE', *, *, #35, .T. ) ;
#203 = STYLED_ITEM ( 'NONE', ( #247 ), #270 ) ;
#204 = EDGE_LOOP ( 'NONE', ( #129, #72, #280, #307 ) ) ;
#205 = ORIENTED_EDGE ( 'NONE', *, *, #118, .T. ) ;
#206 = AXIS2_PLACEMENT_3D ( 'NONE', #157, #58, #236 ) ;
#207 = CIRCLE ( 'NONE', #321, 5.999999999999998224 ) ;
#208 =( NAMED_UNIT ( * ) SI_UNIT ( $, .STERADIAN. ) SOLID_ANGLE_UNIT ( ) );
#209 = VERTEX_POINT ( 'NONE', #222 ) ;
#210 = EDGE_CURVE ( 'NONE', #282, #96, #146, .T. ) ;
#211 = FACE_OUTER_BOUND ( 'NONE', #53, .T. ) ;
#212 = CARTESIAN_POINT ( 'NONE',  ( -12.54559519276203439, 37.76701645441195154, -43.22463921736924419 ) ) ;
#213 = CIRCLE ( 'NONE', #145, 4.000000000000003553 ) ;
#214 = CIRCLE ( 'NONE', #119, 4.000000000000003553 ) ;
#215 = ORIENTED_EDGE ( 'NONE', *, *, #190, .F. ) ;
#216 = DIRECTION ( 'NONE',  ( -0.000000000000000000, 1.000000000000000000, -0.000000000000000000 ) ) ;
#217 = CARTESIAN_POINT ( 'NONE',  ( -12.54559519276203439, 38.26701645441195154, -43.22463921736924419 ) ) ;
#218 = ADVANCED_FACE ( 'NONE', ( #64 ), #291, .T. ) ;
#219 = SURFACE_SIDE_STYLE ('',( #266 ) ) ;
#220 = SURFACE_STYLE_USAGE ( .BOTH. , #219 ) ;
#221 = EDGE_CURVE ( 'NONE', #79, #68, #224, .T. ) ;
#222 = CARTESIAN_POINT ( 'NONE',  ( -12.54559519276203439, 12.26701645441195510, -46.22463921736927972 ) ) ;
#223 = CIRCLE ( 'NONE', #46, 4.500000000000003553 ) ;
#224 = CIRCLE ( 'NONE', #306, 0.5000000000000004441 ) ;
#225 = CYLINDRICAL_SURFACE ( 'NONE', #171, 4.000000000000003553 ) ;
#226 = CARTESIAN_POINT ( 'NONE',  ( -12.54559519276203439, 59.26701645441195154, -49.22463921736924419 ) ) ;
#227 =( LENGTH_UNIT ( ) NAMED_UNIT ( * ) SI_UNIT ( .MILLI., .METRE. ) );
#228 = STYLED_ITEM ( 'NONE', ( #19 ), #180 ) ;
#229 = ORIENTED_EDGE ( 'NONE', *, *, #35, .F. ) ;
#230 = EDGE_CURVE ( 'NONE', #178, #127, #164, .T. ) ;
#231 = ORIENTED_EDGE ( 'NONE', *, *, #287, .T. ) ;
#232 = ORIENTED_EDGE ( 'NONE', *, *, #154, .F. ) ;
#233 = CARTESIAN_POINT ( 'NONE',  ( -12.54559519276203439, 79.23757920288909418, -43.22463921736924419 ) ) ;
#234 = VECTOR ( 'NONE', #163, 1000.000000000000114 ) ;
#235 = EDGE_LOOP ( 'NONE', ( #165, #155, #279, #192 ) ) ;
#236 = DIRECTION ( 'NONE',  ( 0.000000000000000000, -0.000000000000000000, 1.000000000000000000 ) ) ;
#237 = ORIENTED_EDGE ( 'NONE', *, *, #221, .F. ) ;
#238 = DIRECTION ( 'NONE',  ( 0.000000000000000000, 1.000000000000000000, 0.000000000000000000 ) ) ;
#239 = MECHANICAL_DESIGN_GEOMETRIC_PRESENTATION_REPRESENTATION (  '', ( #203 ), #80 ) ;
#240 = DIRECTION ( 'NONE',  ( 0.000000000000000000, 1.000000000000000000, 0.000000000000000000 ) ) ;
#241 = DIRECTION ( 'NONE',  ( 0.000000000000000000, 0.000000000000000000, -1.000000000000000000 ) ) ;
#242 = CIRCLE ( 'NONE', #251, 3.000000000000037303 ) ;
#243 = EDGE_CURVE ( 'NONE', #50, #127, #44, .T. ) ;
#244 = CARTESIAN_POINT ( 'NONE',  ( -12.54559519276203439, 37.76701645441195154, -47.72463921736924419 ) ) ;
#245 = FACE_OUTER_BOUND ( 'NONE', #235, .T. ) ;
#246 = FILL_AREA_STYLE ('',( #83 ) ) ;
#247 = PRESENTATION_STYLE_ASSIGNMENT (( #128 ) ) ;
#248 = ORIENTED_EDGE ( 'NONE', *, *, #111, .T. ) ;
#249 = DIRECTION ( 'NONE',  ( 0.000000000000000000, 0.000000000000000000, 1.000000000000000000 ) ) ;
#250 = AXIS2_PLACEMENT_3D ( 'NONE', #133, #108, #137 ) ;
#251 = AXIS2_PLACEMENT_3D ( 'NONE', #99, #78, #241 ) ;
#252 = EDGE_LOOP ( 'NONE', ( #215, #232 ) ) ;
#253 = DIRECTION ( 'NONE',  ( 0.000000000000000000, 0.000000000000000000, -1.000000000000000000 ) ) ;
#254 = EDGE_LOOP ( 'NONE', ( #32, #30 ) ) ;
#255 = CARTESIAN_POINT ( 'NONE',  ( -59.52915885569893106, 59.26701645441195154, -12.93363815218887680 ) ) ;
#256 = ORIENTED_EDGE ( 'NONE', *, *, #296, .F. ) ;
#257 = TOROIDAL_SURFACE ( 'NONE', #298, 4.500000000000003553, 0.5000000000000000000 ) ;
#258 = DIRECTION ( 'NONE',  ( 0.000000000000000000, 0.000000000000000000, 1.000000000000000000 ) ) ;
#259 = CARTESIAN_POINT ( 'NONE',  ( -12.54559519276203439, 37.76701645441195154, -43.22463921736924419 ) ) ;
#260 = ADVANCED_FACE ( 'NONE', ( #245 ), #225, .T. ) ;
#261 = CARTESIAN_POINT ( 'NONE',  ( -12.54559519276203439, 37.76701645441195154, -47.22463921736924419 ) ) ;
#262 = CONICAL_SURFACE ( 'NONE', #115, 3.000000000000037303, 0.7853981633974447263 ) ;
#263 = PRESENTATION_LAYER_ASSIGNMENT (  '', '', ( #228 ) ) ;
#264 = FACE_OUTER_BOUND ( 'NONE', #185, .T. ) ;
#265 = CARTESIAN_POINT ( 'NONE',  ( -12.54559519276203439, 12.26701645441195510, -43.22463921736924419 ) ) ;
#266 = SURFACE_STYLE_FILL_AREA ( #246 ) ;
#267 = MECHANICAL_DESIGN_GEOMETRIC_PRESENTATION_REPRESENTATION (  '', ( #228 ), #136 ) ;
#268 = DIRECTION ( 'NONE',  ( 0.000000000000000000, 1.000000000000000000, 0.000000000000000000 ) ) ;
#269 = DIRECTION ( 'NONE',  ( -0.000000000000000000, -1.000000000000000000, -0.000000000000000000 ) ) ;
#270 = ADVANCED_BREP_SHAPE_REPRESENTATION ( 'REM_USI_02', ( #180, #275 ), #41 ) ;
#271 = CARTESIAN_POINT ( 'NONE',  ( -12.54559519276203439, 37.76701645441195154, -43.22463921736924419 ) ) ;
#272 = DIRECTION ( 'NONE',  ( 0.000000000000000000, 0.000000000000000000, 1.000000000000000000 ) ) ;
#273 = PRODUCT_RELATED_PRODUCT_CATEGORY ( 'part', '', ( #10 ) ) ;
#274 = PLANE ( 'NONE',  #162 ) ;
#275 = AXIS2_PLACEMENT_3D ( 'NONE', #148, #249, #285 ) ;
#276 = ORIENTED_EDGE ( 'NONE', *, *, #296, .T. ) ;
#277 = DIRECTION ( 'NONE',  ( -0.000000000000000000, 1.000000000000000000, 0.000000000000000000 ) ) ;
#278 = VECTOR ( 'NONE', #320, 1000.000000000000000 ) ;
#279 = ORIENTED_EDGE ( 'NONE', *, *, #243, .T. ) ;
#280 = ORIENTED_EDGE ( 'NONE', *, *, #154, .T. ) ;
#281 = LINE ( 'NONE', #24, #174 ) ;
#282 = VERTEX_POINT ( 'NONE', #94 ) ;
#283 = DIRECTION ( 'NONE',  ( 0.000000000000000000, 0.000000000000000000, 1.000000000000000000 ) ) ;
#284 = AXIS2_PLACEMENT_3D ( 'NONE', #271, #143, #272 ) ;
#285 = DIRECTION ( 'NONE',  ( 1.000000000000000000, 0.000000000000000000, 0.000000000000000000 ) ) ;
#286 = LINE ( 'NONE', #311, #313 ) ;
#287 = EDGE_CURVE ( 'NONE', #304, #209, #27, .T. ) ;
#288 = CARTESIAN_POINT ( 'NONE',  ( -12.54559519276203439, 12.26701645441195510, -40.22463921736920867 ) ) ;
#289 = CARTESIAN_POINT ( 'NONE',  ( -12.54559519276203439, 38.26701645441195154, -47.72463921736924419 ) ) ;
#290 = DIRECTION ( 'NONE',  ( 0.000000000000000000, 0.000000000000000000, 1.000000000000000000 ) ) ;
#291 = CYLINDRICAL_SURFACE ( 'NONE', #183, 5.999999999999998224 ) ;
#292 = FACE_OUTER_BOUND ( 'NONE', #33, .T. ) ;
#293 = AXIS2_PLACEMENT_3D ( 'NONE', #259, #76, #283 ) ;
#294 = CARTESIAN_POINT ( 'NONE',  ( -12.54559519276203439, 38.26701645441195154, -43.22463921736924419 ) ) ;
#295 = PLANE ( 'NONE',  #77 ) ;
#296 = EDGE_CURVE ( 'NONE', #68, #127, #214, .T. ) ;
#297 = CARTESIAN_POINT ( 'NONE',  ( -12.54559519276203439, 12.26701645441195510, -43.22463921736924419 ) ) ;
#298 = AXIS2_PLACEMENT_3D ( 'NONE', #212, #240, #290 ) ;
#299 = DIRECTION ( 'NONE',  ( 0.000000000000000000, -1.000000000000000000, 0.000000000000000000 ) ) ;
#300 = DIRECTION ( 'NONE',  ( 0.000000000000000000, 0.000000000000000000, -1.000000000000000000 ) ) ;
#301 = ORIENTED_EDGE ( 'NONE', *, *, #190, .T. ) ;
#302 = ADVANCED_FACE ( 'NONE', ( #52 ), #124, .T. ) ;
#303 = DIRECTION ( 'NONE',  ( -0.000000000000000000, -1.000000000000000000, -0.000000000000000000 ) ) ;
#304 = VERTEX_POINT ( 'NONE', #90 ) ;
#305 = DIRECTION ( 'NONE',  ( 0.000000000000000000, 0.000000000000000000, 1.000000000000000000 ) ) ;
#306 = AXIS2_PLACEMENT_3D ( 'NONE', #244, #18, #173 ) ;
#307 = ORIENTED_EDGE ( 'NONE', *, *, #118, .F. ) ;
#308 = EDGE_CURVE ( 'NONE', #95, #68, #281, .T. ) ;
#309 = FACE_OUTER_BOUND ( 'NONE', #254, .T. ) ;
#310 = ADVANCED_FACE ( 'NONE', ( #309 ), #274, .T. ) ;
#311 = CARTESIAN_POINT ( 'NONE',  ( -12.54559519276203439, 79.23757920288909418, -49.22463921736924419 ) ) ;
#312 = FACE_BOUND ( 'NONE', #149, .T. ) ;
#313 = VECTOR ( 'NONE', #161, 1000.000000000000000 ) ;
#314 = CARTESIAN_POINT ( 'NONE',  ( -12.54559519276203439, 12.26701645441195510, -46.22463921736927972 ) ) ;
#315 = EDGE_CURVE ( 'NONE', #178, #79, #134, .T. ) ;
#316 = DIRECTION ( 'NONE',  ( 0.000000000000000000, 0.000000000000000000, 1.000000000000000000 ) ) ;
#317 = CARTESIAN_POINT ( 'NONE',  ( -12.54559519276203439, 38.26701645441195154, -37.22463921736924419 ) ) ;
#318 = PRODUCT_DEFINITION ( 'UNKNOWN', '', #193, #39 ) ;
#319 = DIRECTION ( 'NONE',  ( 0.000000000000000000, 1.000000000000000000, 0.000000000000000000 ) ) ;
#320 = DIRECTION ( 'NONE',  ( -0.000000000000000000, -1.000000000000000000, -0.000000000000000000 ) ) ;
#321 = AXIS2_PLACEMENT_3D ( 'NONE', #66, #176, #144 ) ;
#322 = CARTESIAN_POINT ( 'NONE',  ( -12.54559519276203439, 12.26701645441195510, -43.22463921736924419 ) ) ;
ENDSEC;
END-ISO-10303-21;
