ISO-10303-21;
HEADER;
FILE_DESCRIPTION (( 'STEP AP214' ),
    '1' );
FILE_NAME ('ROM_1005-flasque roueØ52.5.STEP',
    '2020-04-30T16:38:05',
    ( '' ),
    ( '' ),
    'SwSTEP 2.0',
    'SolidWorks 2016',
    '' );
FILE_SCHEMA (( 'AUTOMOTIVE_DESIGN' ));
ENDSEC;

DATA;
#1 = ADVANCED_FACE ( 'NONE', ( #92, #51 ), #153, .F. ) ;
#2 = VECTOR ( 'NONE', #141, 1000.000000000000000 ) ;
#3 = COLOUR_RGB ( '',0.6470588235294118000, 0.6196078431372549200, 0.5843137254901961100 ) ;
#4 = EDGE_LOOP ( 'NONE', ( #151, #117, #207, #69 ) ) ;
#5 = EDGE_CURVE ( 'NONE', #130, #67, #33, .T. ) ;
#6 =( GEOMETRIC_REPRESENTATION_CONTEXT ( 3 ) GLOBAL_UNCERTAINTY_ASSIGNED_CONTEXT ( ( #201 ) ) GLOBAL_UNIT_ASSIGNED_CONTEXT ( ( #213, #198, #138 ) ) REPRESENTATION_CONTEXT ( 'NONE', 'WORKASPACE' ) );
#7 = DIRECTION ( 'NONE',  ( 1.000000000000000000, 0.0000000000000000000, -0.0000000000000000000 ) ) ;
#8 = CARTESIAN_POINT ( 'NONE',  ( 0.0000000000000000000, 0.0000000000000000000, 0.0000000000000000000 ) ) ;
#9 = CARTESIAN_POINT ( 'NONE',  ( -6.049999999999999800, 7.409113134841486500E-016, 2.000000000000000000 ) ) ;
#10 = CYLINDRICAL_SURFACE ( 'NONE', #35, 6.049999999999999800 ) ;
#11 = EDGE_LOOP ( 'NONE', ( #195, #146, #58, #119 ) ) ;
#12 = CARTESIAN_POINT ( 'NONE',  ( 0.0000000000000000000, 0.0000000000000000000, 2.000000000000000000 ) ) ;
#13 = DIRECTION ( 'NONE',  ( 1.000000000000000000, 0.0000000000000000000, 0.0000000000000000000 ) ) ;
#14 = DIRECTION ( 'NONE',  ( -1.000000000000000000, 0.0000000000000000000, 0.0000000000000000000 ) ) ;
#15 = FILL_AREA_STYLE ('',( #159 ) ) ;
#16 = DIRECTION ( 'NONE',  ( -0.0000000000000000000, -0.0000000000000000000, -1.000000000000000000 ) ) ;
#17 = EDGE_CURVE ( 'NONE', #34, #67, #189, .T. ) ;
#18 = VERTEX_POINT ( 'NONE', #90 ) ;
#19 = VECTOR ( 'NONE', #107, 1000.000000000000000 ) ;
#20 = ORIENTED_EDGE ( 'NONE', *, *, #182, .F. ) ;
#21 = AXIS2_PLACEMENT_3D ( 'NONE', #8, #40, #128 ) ;
#22 = DIRECTION ( 'NONE',  ( -0.0000000000000000000, -0.0000000000000000000, 1.000000000000000000 ) ) ;
#23 = ORIENTED_EDGE ( 'NONE', *, *, #102, .T. ) ;
#24 =( NAMED_UNIT ( * ) SI_UNIT ( $, .STERADIAN. ) SOLID_ANGLE_UNIT ( ) );
#25 = EDGE_CURVE ( 'NONE', #109, #130, #183, .T. ) ;
#26 = ORIENTED_EDGE ( 'NONE', *, *, #38, .T. ) ;
#27 = DIRECTION ( 'NONE',  ( 1.000000000000000000, 0.0000000000000000000, 0.0000000000000000000 ) ) ;
#28 = CARTESIAN_POINT ( 'NONE',  ( 6.049999999999999800, 0.0000000000000000000, 0.0000000000000000000 ) ) ;
#29 = CARTESIAN_POINT ( 'NONE',  ( 0.0000000000000000000, 0.0000000000000000000, 0.0000000000000000000 ) ) ;
#30 =( NAMED_UNIT ( * ) PLANE_ANGLE_UNIT ( ) SI_UNIT ( $, .RADIAN. ) );
#31 = VERTEX_POINT ( 'NONE', #168 ) ;
#32 =( NAMED_UNIT ( * ) SI_UNIT ( $, .STERADIAN. ) SOLID_ANGLE_UNIT ( ) );
#33 = LINE ( 'NONE', #77, #19 ) ;
#34 = VERTEX_POINT ( 'NONE', #9 ) ;
#35 = AXIS2_PLACEMENT_3D ( 'NONE', #121, #22, #94 ) ;
#36 = CIRCLE ( 'NONE', #101, 25.10000000000000100 ) ;
#37 = CIRCLE ( 'NONE', #206, 6.049999999999999800 ) ;
#38 = EDGE_CURVE ( 'NONE', #67, #34, #37, .T. ) ;
#39 = CARTESIAN_POINT ( 'NONE',  ( 6.049999999999999800, 0.0000000000000000000, 2.000000000000000000 ) ) ;
#40 = DIRECTION ( 'NONE',  ( 0.0000000000000000000, 0.0000000000000000000, 1.000000000000000000 ) ) ;
#41 = AXIS2_PLACEMENT_3D ( 'NONE', #170, #16, #14 ) ;
#42 = DIRECTION ( 'NONE',  ( 0.0000000000000000000, 0.0000000000000000000, 1.000000000000000000 ) ) ;
#43 = AXIS2_PLACEMENT_3D ( 'NONE', #12, #42, #152 ) ;
#44 = LINE ( 'NONE', #173, #96 ) ;
#45 =( LENGTH_UNIT ( ) NAMED_UNIT ( * ) SI_UNIT ( .MILLI., .METRE. ) );
#46 = FILL_AREA_STYLE_COLOUR ( '', #3 ) ;
#47 = AXIS2_PLACEMENT_3D ( 'NONE', #177, #211, #194 ) ;
#48 = CARTESIAN_POINT ( 'NONE',  ( -25.10000000000000100, 0.0000000000000000000, 0.0000000000000000000 ) ) ;
#49 = ADVANCED_FACE ( 'NONE', ( #118 ), #10, .F. ) ;
#50 = APPLICATION_PROTOCOL_DEFINITION ( 'draft international standard', 'automotive_design', 1998, #212 ) ;
#51 = FACE_OUTER_BOUND ( 'NONE', #122, .T. ) ;
#52 = MECHANICAL_DESIGN_GEOMETRIC_PRESENTATION_REPRESENTATION (  '', ( #54 ), #74 ) ;
#53 = ADVANCED_FACE ( 'NONE', ( #105, #166 ), #209, .T. ) ;
#54 = STYLED_ITEM ( 'NONE', ( #55 ), #81 ) ;
#55 = PRESENTATION_STYLE_ASSIGNMENT (( #62 ) ) ;
#56 = ORIENTED_EDGE ( 'NONE', *, *, #176, .F. ) ;
#57 = CARTESIAN_POINT ( 'NONE',  ( 0.0000000000000000000, 0.0000000000000000000, 2.000000000000000000 ) ) ;
#58 = ORIENTED_EDGE ( 'NONE', *, *, #17, .T. ) ;
#59 = DIRECTION ( 'NONE',  ( 1.000000000000000000, 0.0000000000000000000, 0.0000000000000000000 ) ) ;
#60 = AXIS2_PLACEMENT_3D ( 'NONE', #76, #89, #169 ) ;
#61 = DIRECTION ( 'NONE',  ( 0.0000000000000000000, 0.0000000000000000000, 1.000000000000000000 ) ) ;
#62 = SURFACE_STYLE_USAGE ( .BOTH. , #126 ) ;
#63 = CIRCLE ( 'NONE', #187, 25.10000000000000100 ) ;
#64 = EDGE_LOOP ( 'NONE', ( #190, #185, #132, #26 ) ) ;
#65 = EDGE_CURVE ( 'NONE', #31, #162, #120, .T. ) ;
#66 = ORIENTED_EDGE ( 'NONE', *, *, #17, .F. ) ;
#67 = VERTEX_POINT ( 'NONE', #39 ) ;
#68 = PRESENTATION_LAYER_ASSIGNMENT (  '', '', ( #214 ) ) ;
#69 = ORIENTED_EDGE ( 'NONE', *, *, #176, .T. ) ;
#70 = AXIS2_PLACEMENT_3D ( 'NONE', #139, #124, #27 ) ;
#71 = DIRECTION ( 'NONE',  ( -0.0000000000000000000, -0.0000000000000000000, -1.000000000000000000 ) ) ;
#72 = PRESENTATION_STYLE_ASSIGNMENT (( #175 ) ) ;
#73 = ORIENTED_EDGE ( 'NONE', *, *, #204, .T. ) ;
#74 =( GEOMETRIC_REPRESENTATION_CONTEXT ( 3 ) GLOBAL_UNCERTAINTY_ASSIGNED_CONTEXT ( ( #84 ) ) GLOBAL_UNIT_ASSIGNED_CONTEXT ( ( #114, #163, #32 ) ) REPRESENTATION_CONTEXT ( 'NONE', 'WORKASPACE' ) );
#75 = CARTESIAN_POINT ( 'NONE',  ( -25.10000000000000100, 0.0000000000000000000, 2.000000000000000000 ) ) ;
#76 = CARTESIAN_POINT ( 'NONE',  ( 0.0000000000000000000, 0.0000000000000000000, 0.0000000000000000000 ) ) ;
#77 = CARTESIAN_POINT ( 'NONE',  ( 6.049999999999999800, 0.0000000000000000000, 0.0000000000000000000 ) ) ;
#78 = FACE_OUTER_BOUND ( 'NONE', #4, .T. ) ;
#79 = EDGE_LOOP ( 'NONE', ( #179, #66 ) ) ;
#80 = FILL_AREA_STYLE ('',( #46 ) ) ;
#81 = ADVANCED_BREP_SHAPE_REPRESENTATION ( 'ROM_1005-flasque roueÏ52.5', ( #171, #112 ), #6 ) ;
#82 = SURFACE_SIDE_STYLE ('',( #210 ) ) ;
#83 = CIRCLE ( 'NONE', #47, 25.10000000000000100 ) ;
#84 = UNCERTAINTY_MEASURE_WITH_UNIT (LENGTH_MEASURE( 1.000000000000000100E-005 ), #114, 'distance_accuracy_value', 'NONE');
#85 = ORIENTED_EDGE ( 'NONE', *, *, #147, .F. ) ;
#86 = CIRCLE ( 'NONE', #193, 25.10000000000000100 ) ;
#87 = AXIS2_PLACEMENT_3D ( 'NONE', #135, #137, #7 ) ;
#88 = DIRECTION ( 'NONE',  ( -0.0000000000000000000, -0.0000000000000000000, -1.000000000000000000 ) ) ;
#89 = DIRECTION ( 'NONE',  ( 0.0000000000000000000, 0.0000000000000000000, 1.000000000000000000 ) ) ;
#90 = CARTESIAN_POINT ( 'NONE',  ( 25.10000000000000100, 3.073863465859856800E-015, 0.0000000000000000000 ) ) ;
#91 = DIRECTION ( 'NONE',  ( 1.000000000000000000, 0.0000000000000000000, 0.0000000000000000000 ) ) ;
#92 = FACE_BOUND ( 'NONE', #142, .T. ) ;
#93 =( GEOMETRIC_REPRESENTATION_CONTEXT ( 3 ) GLOBAL_UNCERTAINTY_ASSIGNED_CONTEXT ( ( #156 ) ) GLOBAL_UNIT_ASSIGNED_CONTEXT ( ( #45, #30, #24 ) ) REPRESENTATION_CONTEXT ( 'NONE', 'WORKASPACE' ) );
#94 = DIRECTION ( 'NONE',  ( 1.000000000000000000, 0.0000000000000000000, 0.0000000000000000000 ) ) ;
#95 = CARTESIAN_POINT ( 'NONE',  ( 0.0000000000000000000, 0.0000000000000000000, 0.0000000000000000000 ) ) ;
#96 = VECTOR ( 'NONE', #110, 1000.000000000000000 ) ;
#97 = DIRECTION ( 'NONE',  ( 0.0000000000000000000, 0.0000000000000000000, 1.000000000000000000 ) ) ;
#98 = SURFACE_STYLE_FILL_AREA ( #15 ) ;
#99 = ORIENTED_EDGE ( 'NONE', *, *, #147, .T. ) ;
#100 = APPLICATION_PROTOCOL_DEFINITION ( 'draft international standard', 'automotive_design', 1998, #160 ) ;
#101 = AXIS2_PLACEMENT_3D ( 'NONE', #95, #97, #197 ) ;
#102 = EDGE_CURVE ( 'NONE', #130, #109, #174, .T. ) ;
#103 = ORIENTED_EDGE ( 'NONE', *, *, #65, .F. ) ;
#104 = DIRECTION ( 'NONE',  ( 0.0000000000000000000, 0.0000000000000000000, 1.000000000000000000 ) ) ;
#105 = FACE_BOUND ( 'NONE', #79, .T. ) ;
#106 = ORIENTED_EDGE ( 'NONE', *, *, #188, .T. ) ;
#107 = DIRECTION ( 'NONE',  ( -0.0000000000000000000, -0.0000000000000000000, 1.000000000000000000 ) ) ;
#108 = CARTESIAN_POINT ( 'NONE',  ( 25.10000000000000100, 3.073863465859856800E-015, 2.000000000000000000 ) ) ;
#109 = VERTEX_POINT ( 'NONE', #167 ) ;
#110 = DIRECTION ( 'NONE',  ( -0.0000000000000000000, -0.0000000000000000000, 1.000000000000000000 ) ) ;
#111 = ADVANCED_FACE ( 'NONE', ( #78 ), #205, .T. ) ;
#112 = AXIS2_PLACEMENT_3D ( 'NONE', #155, #161, #181 ) ;
#113 = PRODUCT_DEFINITION_CONTEXT ( 'detailed design', #160, 'design' ) ;
#114 =( LENGTH_UNIT ( ) NAMED_UNIT ( * ) SI_UNIT ( .MILLI., .METRE. ) );
#115 = ADVANCED_FACE ( 'NONE', ( #133 ), #184, .F. ) ;
#116 = EDGE_CURVE ( 'NONE', #109, #34, #44, .T. ) ;
#117 = ORIENTED_EDGE ( 'NONE', *, *, #204, .F. ) ;
#118 = FACE_OUTER_BOUND ( 'NONE', #11, .T. ) ;
#119 = ORIENTED_EDGE ( 'NONE', *, *, #5, .F. ) ;
#120 = LINE ( 'NONE', #75, #145 ) ;
#121 = CARTESIAN_POINT ( 'NONE',  ( 0.0000000000000000000, 0.0000000000000000000, 0.0000000000000000000 ) ) ;
#122 = EDGE_LOOP ( 'NONE', ( #56, #20 ) ) ;
#123 = PRODUCT_DEFINITION ( 'UNKNOWN', '', #172, #113 ) ;
#124 = DIRECTION ( 'NONE',  ( -0.0000000000000000000, -0.0000000000000000000, 1.000000000000000000 ) ) ;
#125 = CARTESIAN_POINT ( 'NONE',  ( 0.0000000000000000000, 0.0000000000000000000, 2.000000000000000000 ) ) ;
#126 = SURFACE_SIDE_STYLE ('',( #98 ) ) ;
#127 = PRODUCT_DEFINITION_SHAPE ( 'NONE', 'NONE',  #123 ) ;
#128 = DIRECTION ( 'NONE',  ( 1.000000000000000000, 0.0000000000000000000, 0.0000000000000000000 ) ) ;
#129 = PRODUCT ( 'ROM_1005-flasque roueØ52.5', 'ROM_1005-flasque roueØ52.5', '', ( #143 ) ) ;
#130 = VERTEX_POINT ( 'NONE', #28 ) ;
#131 = AXIS2_PLACEMENT_3D ( 'NONE', #57, #88, #134 ) ;
#132 = ORIENTED_EDGE ( 'NONE', *, *, #5, .T. ) ;
#133 = FACE_OUTER_BOUND ( 'NONE', #64, .T. ) ;
#134 = DIRECTION ( 'NONE',  ( -1.000000000000000000, 0.0000000000000000000, 0.0000000000000000000 ) ) ;
#135 = CARTESIAN_POINT ( 'NONE',  ( 0.0000000000000000000, 0.0000000000000000000, 2.000000000000000000 ) ) ;
#136 = COLOUR_RGB ( '',0.6470588235294118000, 0.6196078431372549200, 0.5843137254901961100 ) ;
#137 = DIRECTION ( 'NONE',  ( 0.0000000000000000000, 0.0000000000000000000, 1.000000000000000000 ) ) ;
#138 =( NAMED_UNIT ( * ) SI_UNIT ( $, .STERADIAN. ) SOLID_ANGLE_UNIT ( ) );
#139 = CARTESIAN_POINT ( 'NONE',  ( 0.0000000000000000000, 0.0000000000000000000, 0.0000000000000000000 ) ) ;
#140 = DIRECTION ( 'NONE',  ( 0.0000000000000000000, 0.0000000000000000000, 1.000000000000000000 ) ) ;
#141 = DIRECTION ( 'NONE',  ( -0.0000000000000000000, -0.0000000000000000000, -1.000000000000000000 ) ) ;
#142 = EDGE_LOOP ( 'NONE', ( #23, #202 ) ) ;
#143 = PRODUCT_CONTEXT ( 'NONE', #212, 'mechanical' ) ;
#144 = EDGE_LOOP ( 'NONE', ( #73, #99 ) ) ;
#145 = VECTOR ( 'NONE', #71, 1000.000000000000000 ) ;
#146 = ORIENTED_EDGE ( 'NONE', *, *, #116, .T. ) ;
#147 = EDGE_CURVE ( 'NONE', #158, #31, #83, .T. ) ;
#148 = CLOSED_SHELL ( 'NONE', ( #49, #200, #111, #53, #1, #115 ) ) ;
#149 = DIRECTION ( 'NONE',  ( 0.0000000000000000000, 0.0000000000000000000, 1.000000000000000000 ) ) ;
#150 = CYLINDRICAL_SURFACE ( 'NONE', #41, 25.10000000000000100 ) ;
#151 = ORIENTED_EDGE ( 'NONE', *, *, #188, .F. ) ;
#152 = DIRECTION ( 'NONE',  ( 1.000000000000000000, 0.0000000000000000000, 0.0000000000000000000 ) ) ;
#153 = PLANE ( 'NONE',  #60 ) ;
#154 = CARTESIAN_POINT ( 'NONE',  ( 25.10000000000000100, 3.073863465859856800E-015, 2.000000000000000000 ) ) ;
#155 = CARTESIAN_POINT ( 'NONE',  ( 0.0000000000000000000, 0.0000000000000000000, 0.0000000000000000000 ) ) ;
#156 = UNCERTAINTY_MEASURE_WITH_UNIT (LENGTH_MEASURE( 1.000000000000000100E-005 ), #45, 'distance_accuracy_value', 'NONE');
#157 = FACE_OUTER_BOUND ( 'NONE', #199, .T. ) ;
#158 = VERTEX_POINT ( 'NONE', #108 ) ;
#159 = FILL_AREA_STYLE_COLOUR ( '', #136 ) ;
#160 = APPLICATION_CONTEXT ( 'automotive_design' ) ;
#161 = DIRECTION ( 'NONE',  ( 0.0000000000000000000, 0.0000000000000000000, 1.000000000000000000 ) ) ;
#162 = VERTEX_POINT ( 'NONE', #48 ) ;
#163 =( NAMED_UNIT ( * ) PLANE_ANGLE_UNIT ( ) SI_UNIT ( $, .RADIAN. ) );
#164 = SHAPE_DEFINITION_REPRESENTATION ( #127, #81 ) ;
#165 = MECHANICAL_DESIGN_GEOMETRIC_PRESENTATION_REPRESENTATION (  '', ( #214 ), #93 ) ;
#166 = FACE_OUTER_BOUND ( 'NONE', #144, .T. ) ;
#167 = CARTESIAN_POINT ( 'NONE',  ( -6.049999999999999800, 7.409113134841486500E-016, 0.0000000000000000000 ) ) ;
#168 = CARTESIAN_POINT ( 'NONE',  ( -25.10000000000000100, 0.0000000000000000000, 2.000000000000000000 ) ) ;
#169 = DIRECTION ( 'NONE',  ( 1.000000000000000000, 0.0000000000000000000, -0.0000000000000000000 ) ) ;
#170 = CARTESIAN_POINT ( 'NONE',  ( 0.0000000000000000000, 0.0000000000000000000, 2.000000000000000000 ) ) ;
#171 = MANIFOLD_SOLID_BREP ( 'Enlèv. mat.-Extru.1', #148 ) ;
#172 = PRODUCT_DEFINITION_FORMATION_WITH_SPECIFIED_SOURCE ( 'ANY', '', #129, .NOT_KNOWN. ) ;
#173 = CARTESIAN_POINT ( 'NONE',  ( -6.049999999999999800, 7.409113134841486500E-016, 0.0000000000000000000 ) ) ;
#174 = CIRCLE ( 'NONE', #21, 6.049999999999999800 ) ;
#175 = SURFACE_STYLE_USAGE ( .BOTH. , #82 ) ;
#176 = EDGE_CURVE ( 'NONE', #162, #18, #63, .T. ) ;
#177 = CARTESIAN_POINT ( 'NONE',  ( 0.0000000000000000000, 0.0000000000000000000, 2.000000000000000000 ) ) ;
#178 = LINE ( 'NONE', #154, #2 ) ;
#179 = ORIENTED_EDGE ( 'NONE', *, *, #38, .F. ) ;
#180 = PRESENTATION_LAYER_ASSIGNMENT (  '', '', ( #54 ) ) ;
#181 = DIRECTION ( 'NONE',  ( 1.000000000000000000, 0.0000000000000000000, 0.0000000000000000000 ) ) ;
#182 = EDGE_CURVE ( 'NONE', #18, #162, #36, .T. ) ;
#183 = CIRCLE ( 'NONE', #196, 6.049999999999999800 ) ;
#184 = CYLINDRICAL_SURFACE ( 'NONE', #70, 6.049999999999999800 ) ;
#185 = ORIENTED_EDGE ( 'NONE', *, *, #102, .F. ) ;
#186 = ORIENTED_EDGE ( 'NONE', *, *, #182, .T. ) ;
#187 = AXIS2_PLACEMENT_3D ( 'NONE', #29, #140, #13 ) ;
#188 = EDGE_CURVE ( 'NONE', #158, #18, #178, .T. ) ;
#189 = CIRCLE ( 'NONE', #43, 6.049999999999999800 ) ;
#190 = ORIENTED_EDGE ( 'NONE', *, *, #116, .F. ) ;
#191 = CARTESIAN_POINT ( 'NONE',  ( 0.0000000000000000000, 0.0000000000000000000, 2.000000000000000000 ) ) ;
#192 = DIRECTION ( 'NONE',  ( 1.000000000000000000, 0.0000000000000000000, 0.0000000000000000000 ) ) ;
#193 = AXIS2_PLACEMENT_3D ( 'NONE', #125, #61, #59 ) ;
#194 = DIRECTION ( 'NONE',  ( 1.000000000000000000, 0.0000000000000000000, 0.0000000000000000000 ) ) ;
#195 = ORIENTED_EDGE ( 'NONE', *, *, #25, .F. ) ;
#196 = AXIS2_PLACEMENT_3D ( 'NONE', #208, #149, #91 ) ;
#197 = DIRECTION ( 'NONE',  ( 1.000000000000000000, 0.0000000000000000000, 0.0000000000000000000 ) ) ;
#198 =( NAMED_UNIT ( * ) PLANE_ANGLE_UNIT ( ) SI_UNIT ( $, .RADIAN. ) );
#199 = EDGE_LOOP ( 'NONE', ( #85, #106, #186, #103 ) ) ;
#200 = ADVANCED_FACE ( 'NONE', ( #157 ), #150, .T. ) ;
#201 = UNCERTAINTY_MEASURE_WITH_UNIT (LENGTH_MEASURE( 1.000000000000000100E-005 ), #213, 'distance_accuracy_value', 'NONE');
#202 = ORIENTED_EDGE ( 'NONE', *, *, #25, .T. ) ;
#203 = PRODUCT_RELATED_PRODUCT_CATEGORY ( 'part', '', ( #129 ) ) ;
#204 = EDGE_CURVE ( 'NONE', #31, #158, #86, .T. ) ;
#205 = CYLINDRICAL_SURFACE ( 'NONE', #131, 25.10000000000000100 ) ;
#206 = AXIS2_PLACEMENT_3D ( 'NONE', #191, #104, #192 ) ;
#207 = ORIENTED_EDGE ( 'NONE', *, *, #65, .T. ) ;
#208 = CARTESIAN_POINT ( 'NONE',  ( 0.0000000000000000000, 0.0000000000000000000, 0.0000000000000000000 ) ) ;
#209 = PLANE ( 'NONE',  #87 ) ;
#210 = SURFACE_STYLE_FILL_AREA ( #80 ) ;
#211 = DIRECTION ( 'NONE',  ( 0.0000000000000000000, 0.0000000000000000000, 1.000000000000000000 ) ) ;
#212 = APPLICATION_CONTEXT ( 'automotive_design' ) ;
#213 =( LENGTH_UNIT ( ) NAMED_UNIT ( * ) SI_UNIT ( .MILLI., .METRE. ) );
#214 = STYLED_ITEM ( 'NONE', ( #72 ), #171 ) ;
ENDSEC;
END-ISO-10303-21;
