ISO-10303-21;
HEADER;
FILE_DESCRIPTION (( 'STEP AP214' ),
    '1' );
FILE_NAME ('Jonction biellette.STEP',
    '2020-12-14T07:40:54',
    ( '' ),
    ( '' ),
    'SwSTEP 2.0',
    'SolidWorks 2014',
    '' );
FILE_SCHEMA (( 'AUTOMOTIVE_DESIGN' ));
ENDSEC;

DATA;
#1 = EDGE_LOOP ( 'NONE', ( #25, #173, #221, #61 ) ) ;
#2 = SURFACE_SIDE_STYLE ('',( #172 ) ) ;
#3 = CARTESIAN_POINT ( 'NONE',  ( -3.399999999999986100, 4.163799117100986800E-016, 0.0000000000000000000 ) ) ;
#4 = VERTEX_POINT ( 'NONE', #99 ) ;
#5 =( NAMED_UNIT ( * ) PLANE_ANGLE_UNIT ( ) SI_UNIT ( $, .RADIAN. ) );
#6 =( GEOMETRIC_REPRESENTATION_CONTEXT ( 3 ) GLOBAL_UNCERTAINTY_ASSIGNED_CONTEXT ( ( #62 ) ) GLOBAL_UNIT_ASSIGNED_CONTEXT ( ( #115, #13, #197 ) ) REPRESENTATION_CONTEXT ( 'NONE', 'WORKASPACE' ) );
#7 = LINE ( 'NONE', #242, #75 ) ;
#8 = ORIENTED_EDGE ( 'NONE', *, *, #189, .T. ) ;
#9 = FILL_AREA_STYLE_COLOUR ( '', #232 ) ;
#10 = CARTESIAN_POINT ( 'NONE',  ( 3.399999999999997700, 0.0000000000000000000, 95.00000000000000000 ) ) ;
#11 = CARTESIAN_POINT ( 'NONE',  ( -3.399999999999997700, 4.163799117100997600E-016, 95.00000000000000000 ) ) ;
#12 = SHAPE_DEFINITION_REPRESENTATION ( #141, #214 ) ;
#13 =( NAMED_UNIT ( * ) PLANE_ANGLE_UNIT ( ) SI_UNIT ( $, .RADIAN. ) );
#14 = ORIENTED_EDGE ( 'NONE', *, *, #167, .F. ) ;
#15 = SURFACE_STYLE_USAGE ( .BOTH. , #114 ) ;
#16 = PRODUCT_DEFINITION_CONTEXT ( 'detailed design', #128, 'design' ) ;
#17 = DIRECTION ( 'NONE',  ( -0.0000000000000000000, -0.0000000000000000000, 1.000000000000000000 ) ) ;
#18 = PRESENTATION_LAYER_ASSIGNMENT (  '', '', ( #120 ) ) ;
#19 = DIRECTION ( 'NONE',  ( -0.0000000000000000000, -0.0000000000000000000, 1.000000000000000000 ) ) ;
#20 = DIRECTION ( 'NONE',  ( 0.0000000000000000000, 0.0000000000000000000, 1.000000000000000000 ) ) ;
#21 = EDGE_LOOP ( 'NONE', ( #195, #212 ) ) ;
#22 = PRODUCT_DEFINITION ( 'UNKNOWN', '', #143, #16 ) ;
#23 = VECTOR ( 'NONE', #175, 1000.000000000000000 ) ;
#24 = AXIS2_PLACEMENT_3D ( 'NONE', #183, #81, #206 ) ;
#25 = ORIENTED_EDGE ( 'NONE', *, *, #174, .F. ) ;
#26 = CARTESIAN_POINT ( 'NONE',  ( 7.500000000000000000, 9.184850993605147900E-016, 95.00000000000000000 ) ) ;
#27 = CIRCLE ( 'NONE', #163, 7.500000000000000000 ) ;
#28 =( NAMED_UNIT ( * ) PLANE_ANGLE_UNIT ( ) SI_UNIT ( $, .RADIAN. ) );
#29 = DIRECTION ( 'NONE',  ( -0.0000000000000000000, -0.0000000000000000000, 1.000000000000000000 ) ) ;
#30 = CARTESIAN_POINT ( 'NONE',  ( 7.500000000000000000, 9.184850993605147900E-016, 0.0000000000000000000 ) ) ;
#31 = PLANE ( 'NONE',  #184 ) ;
#32 = FILL_AREA_STYLE ('',( #235 ) ) ;
#33 = CYLINDRICAL_SURFACE ( 'NONE', #224, 7.500000000000000000 ) ;
#34 =( NAMED_UNIT ( * ) PLANE_ANGLE_UNIT ( ) SI_UNIT ( $, .RADIAN. ) );
#35 = ORIENTED_EDGE ( 'NONE', *, *, #148, .F. ) ;
#36 = PRESENTATION_STYLE_ASSIGNMENT (( #239 ) ) ;
#37 = CARTESIAN_POINT ( 'NONE',  ( 0.0000000000000000000, 0.0000000000000000000, 0.0000000000000000000 ) ) ;
#38 = CIRCLE ( 'NONE', #63, 7.500000000000000000 ) ;
#39 = PRESENTATION_LAYER_ASSIGNMENT (  '', '', ( #166 ) ) ;
#40 =( GEOMETRIC_REPRESENTATION_CONTEXT ( 3 ) GLOBAL_UNCERTAINTY_ASSIGNED_CONTEXT ( ( #73 ) ) GLOBAL_UNIT_ASSIGNED_CONTEXT ( ( #69, #28, #203 ) ) REPRESENTATION_CONTEXT ( 'NONE', 'WORKASPACE' ) );
#41 = ORIENTED_EDGE ( 'NONE', *, *, #200, .T. ) ;
#42 = ORIENTED_EDGE ( 'NONE', *, *, #74, .T. ) ;
#43 = DIRECTION ( 'NONE',  ( 0.0000000000000000000, 0.0000000000000000000, 1.000000000000000000 ) ) ;
#44 = CARTESIAN_POINT ( 'NONE',  ( 0.0000000000000000000, 0.0000000000000000000, 0.0000000000000000000 ) ) ;
#45 = CARTESIAN_POINT ( 'NONE',  ( 0.0000000000000000000, 0.0000000000000000000, 95.00000000000000000 ) ) ;
#46 = COLOUR_RGB ( '',0.7921568627450980000, 0.8196078431372548800, 0.9333333333333333500 ) ;
#47 = SURFACE_STYLE_USAGE ( .BOTH. , #2 ) ;
#48 = PLANE ( 'NONE',  #88 ) ;
#49 = EDGE_LOOP ( 'NONE', ( #127, #204 ) ) ;
#50 = AXIS2_PLACEMENT_3D ( 'NONE', #139, #17, #135 ) ;
#51 = PRESENTATION_LAYER_ASSIGNMENT (  '', '', ( #237 ) ) ;
#52 = ORIENTED_EDGE ( 'NONE', *, *, #58, .T. ) ;
#53 = CARTESIAN_POINT ( 'NONE',  ( 0.0000000000000000000, 0.0000000000000000000, 95.00000000000000000 ) ) ;
#54 = ORIENTED_EDGE ( 'NONE', *, *, #74, .F. ) ;
#55 = DIRECTION ( 'NONE',  ( 1.000000000000000000, 0.0000000000000000000, 0.0000000000000000000 ) ) ;
#56 = APPLICATION_PROTOCOL_DEFINITION ( 'draft international standard', 'automotive_design', 1998, #150 ) ;
#57 = AXIS2_PLACEMENT_3D ( 'NONE', #117, #244, #103 ) ;
#58 = EDGE_CURVE ( 'NONE', #188, #106, #68, .T. ) ;
#59 = ORIENTED_EDGE ( 'NONE', *, *, #58, .F. ) ;
#60 = CYLINDRICAL_SURFACE ( 'NONE', #96, 3.399999999999991500 ) ;
#61 = ORIENTED_EDGE ( 'NONE', *, *, #200, .F. ) ;
#62 = UNCERTAINTY_MEASURE_WITH_UNIT (LENGTH_MEASURE( 1.000000000000000100E-005 ), #115, 'distance_accuracy_value', 'NONE');
#63 = AXIS2_PLACEMENT_3D ( 'NONE', #225, #20, #138 ) ;
#64 = ADVANCED_FACE ( 'NONE', ( #194 ), #60, .F. ) ;
#65 = FILL_AREA_STYLE_COLOUR ( '', #92 ) ;
#66 = FILL_AREA_STYLE ('',( #9 ) ) ;
#67 = CARTESIAN_POINT ( 'NONE',  ( 3.399999999999986100, 0.0000000000000000000, 0.0000000000000000000 ) ) ;
#68 = LINE ( 'NONE', #26, #23 ) ;
#69 =( LENGTH_UNIT ( ) NAMED_UNIT ( * ) SI_UNIT ( .MILLI., .METRE. ) );
#70 = EDGE_LOOP ( 'NONE', ( #182, #42 ) ) ;
#71 = CARTESIAN_POINT ( 'NONE',  ( 0.0000000000000000000, 0.0000000000000000000, 95.00000000000000000 ) ) ;
#72 = VERTEX_POINT ( 'NONE', #11 ) ;
#73 = UNCERTAINTY_MEASURE_WITH_UNIT (LENGTH_MEASURE( 1.000000000000000100E-005 ), #69, 'distance_accuracy_value', 'NONE');
#74 = EDGE_CURVE ( 'NONE', #188, #234, #211, .T. ) ;
#75 = VECTOR ( 'NONE', #153, 1000.000000000000000 ) ;
#76 = ORIENTED_EDGE ( 'NONE', *, *, #125, .F. ) ;
#77 = STYLED_ITEM ( 'NONE', ( #220 ), #64 ) ;
#78 = CYLINDRICAL_SURFACE ( 'NONE', #57, 7.500000000000000000 ) ;
#79 = EDGE_LOOP ( 'NONE', ( #76, #14, #41, #186 ) ) ;
#80 = SURFACE_SIDE_STYLE ('',( #170 ) ) ;
#81 = DIRECTION ( 'NONE',  ( -0.0000000000000000000, -0.0000000000000000000, 1.000000000000000000 ) ) ;
#82 = CARTESIAN_POINT ( 'NONE',  ( 0.0000000000000000000, 0.0000000000000000000, 95.00000000000000000 ) ) ;
#83 = SURFACE_STYLE_USAGE ( .BOTH. , #80 ) ;
#84 = ADVANCED_FACE ( 'NONE', ( #160, #94 ), #31, .F. ) ;
#85 = VECTOR ( 'NONE', #19, 1000.000000000000000 ) ;
#86 = CARTESIAN_POINT ( 'NONE',  ( -7.500000000000000000, 0.0000000000000000000, 95.00000000000000000 ) ) ;
#87 = DIRECTION ( 'NONE',  ( 1.000000000000000000, 0.0000000000000000000, 0.0000000000000000000 ) ) ;
#88 = AXIS2_PLACEMENT_3D ( 'NONE', #45, #130, #181 ) ;
#89 =( GEOMETRIC_REPRESENTATION_CONTEXT ( 3 ) GLOBAL_UNCERTAINTY_ASSIGNED_CONTEXT ( ( #113 ) ) GLOBAL_UNIT_ASSIGNED_CONTEXT ( ( #157, #34, #162 ) ) REPRESENTATION_CONTEXT ( 'NONE', 'WORKASPACE' ) );
#90 = AXIS2_PLACEMENT_3D ( 'NONE', #82, #43, #219 ) ;
#91 = PRESENTATION_STYLE_ASSIGNMENT (( #15 ) ) ;
#92 = COLOUR_RGB ( '',0.7921568627450980000, 0.8196078431372548800, 0.9333333333333333500 ) ;
#93 = APPLICATION_PROTOCOL_DEFINITION ( 'draft international standard', 'automotive_design', 1998, #128 ) ;
#94 = FACE_OUTER_BOUND ( 'NONE', #124, .T. ) ;
#95 = ORIENTED_EDGE ( 'NONE', *, *, #155, .F. ) ;
#96 = AXIS2_PLACEMENT_3D ( 'NONE', #156, #178, #159 ) ;
#97 =( GEOMETRIC_REPRESENTATION_CONTEXT ( 3 ) GLOBAL_UNCERTAINTY_ASSIGNED_CONTEXT ( ( #168 ) ) GLOBAL_UNIT_ASSIGNED_CONTEXT ( ( #144, #5, #190 ) ) REPRESENTATION_CONTEXT ( 'NONE', 'WORKASPACE' ) );
#98 = EDGE_CURVE ( 'NONE', #234, #188, #123, .T. ) ;
#99 = CARTESIAN_POINT ( 'NONE',  ( -7.500000000000000000, 0.0000000000000000000, 0.0000000000000000000 ) ) ;
#100 = DIRECTION ( 'NONE',  ( 1.000000000000000000, 0.0000000000000000000, 0.0000000000000000000 ) ) ;
#101 = SURFACE_SIDE_STYLE ('',( #108 ) ) ;
#102 = CARTESIAN_POINT ( 'NONE',  ( 7.500000000000000000, 9.184850993605147900E-016, 95.00000000000000000 ) ) ;
#103 = DIRECTION ( 'NONE',  ( -1.000000000000000000, 0.0000000000000000000, 0.0000000000000000000 ) ) ;
#104 = CIRCLE ( 'NONE', #107, 3.399999999999986100 ) ;
#105 = ORIENTED_EDGE ( 'NONE', *, *, #148, .T. ) ;
#106 = VERTEX_POINT ( 'NONE', #30 ) ;
#107 = AXIS2_PLACEMENT_3D ( 'NONE', #185, #205, #87 ) ;
#108 = SURFACE_STYLE_FILL_AREA ( #131 ) ;
#109 = AXIS2_PLACEMENT_3D ( 'NONE', #243, #111, #100 ) ;
#110 = FACE_OUTER_BOUND ( 'NONE', #70, .T. ) ;
#111 = DIRECTION ( 'NONE',  ( 0.0000000000000000000, 0.0000000000000000000, 1.000000000000000000 ) ) ;
#112 = ADVANCED_FACE ( 'NONE', ( #136, #110 ), #48, .T. ) ;
#113 = UNCERTAINTY_MEASURE_WITH_UNIT (LENGTH_MEASURE( 1.000000000000000100E-005 ), #157, 'distance_accuracy_value', 'NONE');
#114 = SURFACE_SIDE_STYLE ('',( #227 ) ) ;
#115 =( LENGTH_UNIT ( ) NAMED_UNIT ( * ) SI_UNIT ( .MILLI., .METRE. ) );
#116 = VERTEX_POINT ( 'NONE', #10 ) ;
#117 = CARTESIAN_POINT ( 'NONE',  ( 0.0000000000000000000, 0.0000000000000000000, 95.00000000000000000 ) ) ;
#118 = PRESENTATION_STYLE_ASSIGNMENT (( #47 ) ) ;
#119 = DIRECTION ( 'NONE',  ( 1.000000000000000000, 0.0000000000000000000, 0.0000000000000000000 ) ) ;
#120 = STYLED_ITEM ( 'NONE', ( #36 ), #152 ) ;
#121 = ORIENTED_EDGE ( 'NONE', *, *, #189, .F. ) ;
#122 = EDGE_CURVE ( 'NONE', #116, #72, #149, .T. ) ;
#123 = CIRCLE ( 'NONE', #109, 7.500000000000000000 ) ;
#124 = EDGE_LOOP ( 'NONE', ( #121, #95 ) ) ;
#125 = EDGE_CURVE ( 'NONE', #209, #72, #7, .T. ) ;
#126 = VERTEX_POINT ( 'NONE', #67 ) ;
#127 = ORIENTED_EDGE ( 'NONE', *, *, #167, .T. ) ;
#128 = APPLICATION_CONTEXT ( 'automotive_design' ) ;
#129 =( LENGTH_UNIT ( ) NAMED_UNIT ( * ) SI_UNIT ( .MILLI., .METRE. ) );
#130 = DIRECTION ( 'NONE',  ( 0.0000000000000000000, 0.0000000000000000000, 1.000000000000000000 ) ) ;
#131 = FILL_AREA_STYLE ('',( #180 ) ) ;
#132 = CARTESIAN_POINT ( 'NONE',  ( -7.500000000000000000, 0.0000000000000000000, 95.00000000000000000 ) ) ;
#133 =( GEOMETRIC_REPRESENTATION_CONTEXT ( 3 ) GLOBAL_UNCERTAINTY_ASSIGNED_CONTEXT ( ( #228 ) ) GLOBAL_UNIT_ASSIGNED_CONTEXT ( ( #129, #241, #240 ) ) REPRESENTATION_CONTEXT ( 'NONE', 'WORKASPACE' ) );
#134 = MECHANICAL_DESIGN_GEOMETRIC_PRESENTATION_REPRESENTATION (  '', ( #237 ), #97 ) ;
#135 = DIRECTION ( 'NONE',  ( 1.000000000000000000, 0.0000000000000000000, 0.0000000000000000000 ) ) ;
#136 = FACE_BOUND ( 'NONE', #21, .T. ) ;
#137 = EDGE_LOOP ( 'NONE', ( #54, #52, #158, #35 ) ) ;
#138 = DIRECTION ( 'NONE',  ( 1.000000000000000000, 0.0000000000000000000, 0.0000000000000000000 ) ) ;
#139 = CARTESIAN_POINT ( 'NONE',  ( 0.0000000000000000000, 0.0000000000000000000, 0.0000000000000000000 ) ) ;
#140 = MANIFOLD_SOLID_BREP ( 'Trou taraudé M81', #229 ) ;
#141 = PRODUCT_DEFINITION_SHAPE ( 'NONE', 'NONE',  #22 ) ;
#142 = AXIS2_PLACEMENT_3D ( 'NONE', #71, #164, #55 ) ;
#143 = PRODUCT_DEFINITION_FORMATION_WITH_SPECIFIED_SOURCE ( 'ANY', '', #231, .NOT_KNOWN. ) ;
#144 =( LENGTH_UNIT ( ) NAMED_UNIT ( * ) SI_UNIT ( .MILLI., .METRE. ) );
#145 = FACE_OUTER_BOUND ( 'NONE', #196, .T. ) ;
#146 = MECHANICAL_DESIGN_GEOMETRIC_PRESENTATION_REPRESENTATION (  '', ( #120 ), #40 ) ;
#147 = AXIS2_PLACEMENT_3D ( 'NONE', #213, #233, #171 ) ;
#148 = EDGE_CURVE ( 'NONE', #234, #4, #217, .T. ) ;
#149 = CIRCLE ( 'NONE', #210, 3.399999999999997700 ) ;
#150 = APPLICATION_CONTEXT ( 'automotive_design' ) ;
#151 = CYLINDRICAL_SURFACE ( 'NONE', #24, 3.399999999999991500 ) ;
#152 = ADVANCED_FACE ( 'NONE', ( #165 ), #151, .F. ) ;
#153 = DIRECTION ( 'NONE',  ( -0.0000000000000000000, -0.0000000000000000000, 1.000000000000000000 ) ) ;
#154 = DIRECTION ( 'NONE',  ( 1.000000000000000000, 0.0000000000000000000, 0.0000000000000000000 ) ) ;
#155 = EDGE_CURVE ( 'NONE', #106, #4, #27, .T. ) ;
#156 = CARTESIAN_POINT ( 'NONE',  ( 0.0000000000000000000, 0.0000000000000000000, 95.00000000000000000 ) ) ;
#157 =( LENGTH_UNIT ( ) NAMED_UNIT ( * ) SI_UNIT ( .MILLI., .METRE. ) );
#158 = ORIENTED_EDGE ( 'NONE', *, *, #155, .T. ) ;
#159 = DIRECTION ( 'NONE',  ( 1.000000000000000000, 0.0000000000000000000, 0.0000000000000000000 ) ) ;
#160 = FACE_BOUND ( 'NONE', #49, .T. ) ;
#161 = CARTESIAN_POINT ( 'NONE',  ( 3.399999999999991500, 0.0000000000000000000, 95.00000000000000000 ) ) ;
#162 =( NAMED_UNIT ( * ) SI_UNIT ( $, .STERADIAN. ) SOLID_ANGLE_UNIT ( ) );
#163 = AXIS2_PLACEMENT_3D ( 'NONE', #37, #187, #119 ) ;
#164 = DIRECTION ( 'NONE',  ( -0.0000000000000000000, -0.0000000000000000000, 1.000000000000000000 ) ) ;
#165 = FACE_OUTER_BOUND ( 'NONE', #1, .T. ) ;
#166 = STYLED_ITEM ( 'NONE', ( #91 ), #140 ) ;
#167 = EDGE_CURVE ( 'NONE', #126, #209, #226, .T. ) ;
#168 = UNCERTAINTY_MEASURE_WITH_UNIT (LENGTH_MEASURE( 1.000000000000000100E-005 ), #144, 'distance_accuracy_value', 'NONE');
#169 = FACE_OUTER_BOUND ( 'NONE', #137, .T. ) ;
#170 = SURFACE_STYLE_FILL_AREA ( #66 ) ;
#171 = DIRECTION ( 'NONE',  ( 1.000000000000000000, 0.0000000000000000000, 0.0000000000000000000 ) ) ;
#172 = SURFACE_STYLE_FILL_AREA ( #32 ) ;
#173 = ORIENTED_EDGE ( 'NONE', *, *, #125, .T. ) ;
#174 = EDGE_CURVE ( 'NONE', #209, #126, #104, .T. ) ;
#175 = DIRECTION ( 'NONE',  ( -0.0000000000000000000, -0.0000000000000000000, -1.000000000000000000 ) ) ;
#176 = DIRECTION ( 'NONE',  ( 1.000000000000000000, 0.0000000000000000000, -0.0000000000000000000 ) ) ;
#177 = ADVANCED_FACE ( 'NONE', ( #169 ), #78, .T. ) ;
#178 = DIRECTION ( 'NONE',  ( -0.0000000000000000000, -0.0000000000000000000, 1.000000000000000000 ) ) ;
#179 = DIRECTION ( 'NONE',  ( -1.000000000000000000, 0.0000000000000000000, 0.0000000000000000000 ) ) ;
#180 = FILL_AREA_STYLE_COLOUR ( '', #198 ) ;
#181 = DIRECTION ( 'NONE',  ( 1.000000000000000000, 0.0000000000000000000, -0.0000000000000000000 ) ) ;
#182 = ORIENTED_EDGE ( 'NONE', *, *, #98, .T. ) ;
#183 = CARTESIAN_POINT ( 'NONE',  ( 0.0000000000000000000, 0.0000000000000000000, 95.00000000000000000 ) ) ;
#184 = AXIS2_PLACEMENT_3D ( 'NONE', #44, #218, #176 ) ;
#185 = CARTESIAN_POINT ( 'NONE',  ( 0.0000000000000000000, 0.0000000000000000000, 0.0000000000000000000 ) ) ;
#186 = ORIENTED_EDGE ( 'NONE', *, *, #122, .T. ) ;
#187 = DIRECTION ( 'NONE',  ( 0.0000000000000000000, 0.0000000000000000000, 1.000000000000000000 ) ) ;
#188 = VERTEX_POINT ( 'NONE', #102 ) ;
#189 = EDGE_CURVE ( 'NONE', #4, #106, #38, .T. ) ;
#190 =( NAMED_UNIT ( * ) SI_UNIT ( $, .STERADIAN. ) SOLID_ANGLE_UNIT ( ) );
#191 = LINE ( 'NONE', #161, #85 ) ;
#192 = MECHANICAL_DESIGN_GEOMETRIC_PRESENTATION_REPRESENTATION (  '', ( #77 ), #133 ) ;
#193 = EDGE_CURVE ( 'NONE', #72, #116, #208, .T. ) ;
#194 = FACE_OUTER_BOUND ( 'NONE', #79, .T. ) ;
#195 = ORIENTED_EDGE ( 'NONE', *, *, #122, .F. ) ;
#196 = EDGE_LOOP ( 'NONE', ( #59, #202, #105, #8 ) ) ;
#197 =( NAMED_UNIT ( * ) SI_UNIT ( $, .STERADIAN. ) SOLID_ANGLE_UNIT ( ) );
#198 = COLOUR_RGB ( '',0.7921568627450980000, 0.8196078431372548800, 0.9333333333333333500 ) ;
#199 = FILL_AREA_STYLE ('',( #65 ) ) ;
#200 = EDGE_CURVE ( 'NONE', #126, #116, #191, .T. ) ;
#201 = DIRECTION ( 'NONE',  ( -0.0000000000000000000, -0.0000000000000000000, -1.000000000000000000 ) ) ;
#202 = ORIENTED_EDGE ( 'NONE', *, *, #98, .F. ) ;
#203 =( NAMED_UNIT ( * ) SI_UNIT ( $, .STERADIAN. ) SOLID_ANGLE_UNIT ( ) );
#204 = ORIENTED_EDGE ( 'NONE', *, *, #174, .T. ) ;
#205 = DIRECTION ( 'NONE',  ( -0.0000000000000000000, -0.0000000000000000000, 1.000000000000000000 ) ) ;
#206 = DIRECTION ( 'NONE',  ( 1.000000000000000000, 0.0000000000000000000, 0.0000000000000000000 ) ) ;
#207 = PRODUCT_CONTEXT ( 'NONE', #150, 'mechanical' ) ;
#208 = CIRCLE ( 'NONE', #142, 3.399999999999997700 ) ;
#209 = VERTEX_POINT ( 'NONE', #3 ) ;
#210 = AXIS2_PLACEMENT_3D ( 'NONE', #216, #29, #154 ) ;
#211 = CIRCLE ( 'NONE', #90, 7.500000000000000000 ) ;
#212 = ORIENTED_EDGE ( 'NONE', *, *, #193, .F. ) ;
#213 = CARTESIAN_POINT ( 'NONE',  ( 0.0000000000000000000, 0.0000000000000000000, 0.0000000000000000000 ) ) ;
#214 = ADVANCED_BREP_SHAPE_REPRESENTATION ( 'Jonction biellette', ( #140, #147 ), #89 ) ;
#215 = PRODUCT_RELATED_PRODUCT_CATEGORY ( 'part', '', ( #231 ) ) ;
#216 = CARTESIAN_POINT ( 'NONE',  ( 0.0000000000000000000, 0.0000000000000000000, 95.00000000000000000 ) ) ;
#217 = LINE ( 'NONE', #132, #230 ) ;
#218 = DIRECTION ( 'NONE',  ( 0.0000000000000000000, 0.0000000000000000000, 1.000000000000000000 ) ) ;
#219 = DIRECTION ( 'NONE',  ( 1.000000000000000000, 0.0000000000000000000, 0.0000000000000000000 ) ) ;
#220 = PRESENTATION_STYLE_ASSIGNMENT (( #83 ) ) ;
#221 = ORIENTED_EDGE ( 'NONE', *, *, #193, .T. ) ;
#222 = DIRECTION ( 'NONE',  ( -0.0000000000000000000, -0.0000000000000000000, -1.000000000000000000 ) ) ;
#223 = PRESENTATION_LAYER_ASSIGNMENT (  '', '', ( #77 ) ) ;
#224 = AXIS2_PLACEMENT_3D ( 'NONE', #53, #222, #179 ) ;
#225 = CARTESIAN_POINT ( 'NONE',  ( 0.0000000000000000000, 0.0000000000000000000, 0.0000000000000000000 ) ) ;
#226 = CIRCLE ( 'NONE', #50, 3.399999999999986100 ) ;
#227 = SURFACE_STYLE_FILL_AREA ( #199 ) ;
#228 = UNCERTAINTY_MEASURE_WITH_UNIT (LENGTH_MEASURE( 1.000000000000000100E-005 ), #129, 'distance_accuracy_value', 'NONE');
#229 = CLOSED_SHELL ( 'NONE', ( #152, #177, #238, #112, #84, #64 ) ) ;
#230 = VECTOR ( 'NONE', #201, 1000.000000000000000 ) ;
#231 = PRODUCT ( 'Jonction biellette', 'Jonction biellette', '', ( #207 ) ) ;
#232 = COLOUR_RGB ( '',0.7921568627450980000, 0.8196078431372548800, 0.9333333333333333500 ) ;
#233 = DIRECTION ( 'NONE',  ( 0.0000000000000000000, 0.0000000000000000000, 1.000000000000000000 ) ) ;
#234 = VERTEX_POINT ( 'NONE', #86 ) ;
#235 = FILL_AREA_STYLE_COLOUR ( '', #46 ) ;
#236 = MECHANICAL_DESIGN_GEOMETRIC_PRESENTATION_REPRESENTATION (  '', ( #166 ), #6 ) ;
#237 = STYLED_ITEM ( 'NONE', ( #118 ), #214 ) ;
#238 = ADVANCED_FACE ( 'NONE', ( #145 ), #33, .T. ) ;
#239 = SURFACE_STYLE_USAGE ( .BOTH. , #101 ) ;
#240 =( NAMED_UNIT ( * ) SI_UNIT ( $, .STERADIAN. ) SOLID_ANGLE_UNIT ( ) );
#241 =( NAMED_UNIT ( * ) PLANE_ANGLE_UNIT ( ) SI_UNIT ( $, .RADIAN. ) );
#242 = CARTESIAN_POINT ( 'NONE',  ( -3.399999999999991500, 4.163799117100990700E-016, 95.00000000000000000 ) ) ;
#243 = CARTESIAN_POINT ( 'NONE',  ( 0.0000000000000000000, 0.0000000000000000000, 95.00000000000000000 ) ) ;
#244 = DIRECTION ( 'NONE',  ( -0.0000000000000000000, -0.0000000000000000000, -1.000000000000000000 ) ) ;
ENDSEC;
END-ISO-10303-21;
