ISO-10303-21;
HEADER;
/* Generated by software containing ST-Developer
 * from STEP Tools, Inc. (www.steptools.com) 
 */

FILE_DESCRIPTION(
/* description */ (''),
/* implementation_level */ '2;1');

FILE_NAME(
/* name */ 
'/Users/sebastien/Desktop/Entretoises_SupportBatterie_72mm.step',
/* time_stamp */ '2020-12-04T10:17:39+01:00',
/* author */ (''),
/* organization */ (''),
/* preprocessor_version */ 'ST-DEVELOPER v18.1',
/* originating_system */ 'Autodesk Translation Framework v9.3.0.1241',
/* authorisation */ '');

FILE_SCHEMA (('AUTOMOTIVE_DESIGN { 1 0 10303 214 3 1 1 }'));
ENDSEC;

DATA;
#10=MECHANICAL_DESIGN_GEOMETRIC_PRESENTATION_REPRESENTATION('',(#17),#308);
#11=ITEM_DEFINED_TRANSFORMATION($,$,#178,#200);
#12=(
REPRESENTATION_RELATIONSHIP($,$,#319,#318)
REPRESENTATION_RELATIONSHIP_WITH_TRANSFORMATION(#11)
SHAPE_REPRESENTATION_RELATIONSHIP()
);
#13=CONTEXT_DEPENDENT_SHAPE_REPRESENTATION(#12,#317);
#14=NEXT_ASSEMBLY_USAGE_OCCURRENCE('Composant1:1','Composant1:1',
'Composant1:1',#321,#322,'Composant1:1');
#15=SHAPE_REPRESENTATION_RELATIONSHIP('SRR','None',#319,#16);
#16=ADVANCED_BREP_SHAPE_REPRESENTATION('',(#18),#307);
#17=STYLED_ITEM('',(#333),#18);
#18=MANIFOLD_SOLID_BREP('Corps1',#164);
#19=FACE_BOUND('',#49,.T.);
#20=FACE_BOUND('',#51,.T.);
#21=PLANE('',#198);
#22=PLANE('',#199);
#23=CYLINDRICAL_SURFACE('',#181,2.5);
#24=CYLINDRICAL_SURFACE('',#185,2.5);
#25=CYLINDRICAL_SURFACE('',#187,5.);
#26=CYLINDRICAL_SURFACE('',#192,4.);
#27=CYLINDRICAL_SURFACE('',#196,5.);
#28=FACE_OUTER_BOUND('',#39,.T.);
#29=FACE_OUTER_BOUND('',#40,.T.);
#30=FACE_OUTER_BOUND('',#41,.T.);
#31=FACE_OUTER_BOUND('',#42,.T.);
#32=FACE_OUTER_BOUND('',#43,.T.);
#33=FACE_OUTER_BOUND('',#44,.T.);
#34=FACE_OUTER_BOUND('',#45,.T.);
#35=FACE_OUTER_BOUND('',#46,.T.);
#36=FACE_OUTER_BOUND('',#47,.T.);
#37=FACE_OUTER_BOUND('',#48,.T.);
#38=FACE_OUTER_BOUND('',#50,.T.);
#39=EDGE_LOOP('',(#111,#112,#113));
#40=EDGE_LOOP('',(#114,#115,#116,#117));
#41=EDGE_LOOP('',(#118,#119,#120));
#42=EDGE_LOOP('',(#121,#122,#123,#124));
#43=EDGE_LOOP('',(#125,#126,#127,#128));
#44=EDGE_LOOP('',(#129,#130,#131,#132));
#45=EDGE_LOOP('',(#133,#134,#135,#136));
#46=EDGE_LOOP('',(#137,#138,#139,#140));
#47=EDGE_LOOP('',(#141,#142,#143,#144));
#48=EDGE_LOOP('',(#145));
#49=EDGE_LOOP('',(#146));
#50=EDGE_LOOP('',(#147));
#51=EDGE_LOOP('',(#148));
#52=LINE('',#264,#61);
#53=LINE('',#268,#62);
#54=LINE('',#273,#63);
#55=LINE('',#277,#64);
#56=LINE('',#282,#65);
#57=LINE('',#287,#66);
#58=LINE('',#291,#67);
#59=LINE('',#295,#68);
#60=LINE('',#299,#69);
#61=VECTOR('',#209,1.25);
#62=VECTOR('',#214,2.5);
#63=VECTOR('',#219,1.25);
#64=VECTOR('',#224,2.5);
#65=VECTOR('',#229,5.);
#66=VECTOR('',#236,4.5);
#67=VECTOR('',#241,4.);
#68=VECTOR('',#246,4.5);
#69=VECTOR('',#251,5.);
#70=CIRCLE('',#180,2.5);
#71=CIRCLE('',#182,2.5);
#72=CIRCLE('',#184,2.5);
#73=CIRCLE('',#186,2.5);
#74=CIRCLE('',#188,5.);
#75=CIRCLE('',#189,5.);
#76=CIRCLE('',#191,4.);
#77=CIRCLE('',#193,4.);
#78=CIRCLE('',#195,5.);
#79=CIRCLE('',#197,5.);
#80=VERTEX_POINT('',#261);
#81=VERTEX_POINT('',#263);
#82=VERTEX_POINT('',#266);
#83=VERTEX_POINT('',#270);
#84=VERTEX_POINT('',#272);
#85=VERTEX_POINT('',#275);
#86=VERTEX_POINT('',#279);
#87=VERTEX_POINT('',#281);
#88=VERTEX_POINT('',#285);
#89=VERTEX_POINT('',#289);
#90=VERTEX_POINT('',#293);
#91=VERTEX_POINT('',#297);
#92=EDGE_CURVE('',#80,#80,#70,.T.);
#93=EDGE_CURVE('',#80,#81,#52,.T.);
#94=EDGE_CURVE('',#82,#82,#71,.T.);
#95=EDGE_CURVE('',#82,#80,#53,.T.);
#96=EDGE_CURVE('',#83,#83,#72,.T.);
#97=EDGE_CURVE('',#83,#84,#54,.T.);
#98=EDGE_CURVE('',#85,#85,#73,.T.);
#99=EDGE_CURVE('',#85,#83,#55,.T.);
#100=EDGE_CURVE('',#86,#86,#74,.T.);
#101=EDGE_CURVE('',#86,#87,#56,.T.);
#102=EDGE_CURVE('',#87,#87,#75,.T.);
#103=EDGE_CURVE('',#88,#88,#76,.T.);
#104=EDGE_CURVE('',#88,#86,#57,.T.);
#105=EDGE_CURVE('',#89,#89,#77,.T.);
#106=EDGE_CURVE('',#89,#88,#58,.T.);
#107=EDGE_CURVE('',#90,#90,#78,.T.);
#108=EDGE_CURVE('',#90,#89,#59,.T.);
#109=EDGE_CURVE('',#91,#91,#79,.T.);
#110=EDGE_CURVE('',#91,#90,#60,.T.);
#111=ORIENTED_EDGE('',*,*,#92,.F.);
#112=ORIENTED_EDGE('',*,*,#93,.T.);
#113=ORIENTED_EDGE('',*,*,#93,.F.);
#114=ORIENTED_EDGE('',*,*,#94,.F.);
#115=ORIENTED_EDGE('',*,*,#95,.T.);
#116=ORIENTED_EDGE('',*,*,#92,.T.);
#117=ORIENTED_EDGE('',*,*,#95,.F.);
#118=ORIENTED_EDGE('',*,*,#96,.F.);
#119=ORIENTED_EDGE('',*,*,#97,.T.);
#120=ORIENTED_EDGE('',*,*,#97,.F.);
#121=ORIENTED_EDGE('',*,*,#98,.F.);
#122=ORIENTED_EDGE('',*,*,#99,.T.);
#123=ORIENTED_EDGE('',*,*,#96,.T.);
#124=ORIENTED_EDGE('',*,*,#99,.F.);
#125=ORIENTED_EDGE('',*,*,#100,.F.);
#126=ORIENTED_EDGE('',*,*,#101,.T.);
#127=ORIENTED_EDGE('',*,*,#102,.T.);
#128=ORIENTED_EDGE('',*,*,#101,.F.);
#129=ORIENTED_EDGE('',*,*,#103,.F.);
#130=ORIENTED_EDGE('',*,*,#104,.T.);
#131=ORIENTED_EDGE('',*,*,#100,.T.);
#132=ORIENTED_EDGE('',*,*,#104,.F.);
#133=ORIENTED_EDGE('',*,*,#105,.F.);
#134=ORIENTED_EDGE('',*,*,#106,.T.);
#135=ORIENTED_EDGE('',*,*,#103,.T.);
#136=ORIENTED_EDGE('',*,*,#106,.F.);
#137=ORIENTED_EDGE('',*,*,#107,.F.);
#138=ORIENTED_EDGE('',*,*,#108,.T.);
#139=ORIENTED_EDGE('',*,*,#105,.T.);
#140=ORIENTED_EDGE('',*,*,#108,.F.);
#141=ORIENTED_EDGE('',*,*,#109,.F.);
#142=ORIENTED_EDGE('',*,*,#110,.T.);
#143=ORIENTED_EDGE('',*,*,#107,.T.);
#144=ORIENTED_EDGE('',*,*,#110,.F.);
#145=ORIENTED_EDGE('',*,*,#109,.T.);
#146=ORIENTED_EDGE('',*,*,#94,.T.);
#147=ORIENTED_EDGE('',*,*,#102,.F.);
#148=ORIENTED_EDGE('',*,*,#98,.T.);
#149=CONICAL_SURFACE('',#179,1.25,1.02974425867665);
#150=CONICAL_SURFACE('',#183,1.25,1.02974425867665);
#151=CONICAL_SURFACE('',#190,4.5,0.785398163397447);
#152=CONICAL_SURFACE('',#194,4.5,0.78539816339746);
#153=ADVANCED_FACE('',(#28),#149,.F.);
#154=ADVANCED_FACE('',(#29),#23,.F.);
#155=ADVANCED_FACE('',(#30),#150,.F.);
#156=ADVANCED_FACE('',(#31),#24,.F.);
#157=ADVANCED_FACE('',(#32),#25,.T.);
#158=ADVANCED_FACE('',(#33),#151,.T.);
#159=ADVANCED_FACE('',(#34),#26,.T.);
#160=ADVANCED_FACE('',(#35),#152,.T.);
#161=ADVANCED_FACE('',(#36),#27,.T.);
#162=ADVANCED_FACE('',(#37,#19),#21,.T.);
#163=ADVANCED_FACE('',(#38,#20),#22,.T.);
#164=CLOSED_SHELL('',(#153,#154,#155,#156,#157,#158,#159,#160,#161,#162,
#163));
#165=DERIVED_UNIT_ELEMENT(#167,1.);
#166=DERIVED_UNIT_ELEMENT(#310,3.);
#167=(
MASS_UNIT()
NAMED_UNIT(*)
SI_UNIT(.KILO.,.GRAM.)
);
#168=DERIVED_UNIT((#165,#166));
#169=MEASURE_REPRESENTATION_ITEM('density measure',
POSITIVE_RATIO_MEASURE(7850.),#168);
#170=PROPERTY_DEFINITION_REPRESENTATION(#175,#172);
#171=PROPERTY_DEFINITION_REPRESENTATION(#176,#173);
#172=REPRESENTATION('material name',(#174),#307);
#173=REPRESENTATION('density',(#169),#307);
#174=DESCRIPTIVE_REPRESENTATION_ITEM('Acier','Acier');
#175=PROPERTY_DEFINITION('material property','material name',#322);
#176=PROPERTY_DEFINITION('material property','density of part',#322);
#177=AXIS2_PLACEMENT_3D('placement',#258,#201,#202);
#178=AXIS2_PLACEMENT_3D('placement',#259,#203,#204);
#179=AXIS2_PLACEMENT_3D('',#260,#205,#206);
#180=AXIS2_PLACEMENT_3D('',#262,#207,#208);
#181=AXIS2_PLACEMENT_3D('',#265,#210,#211);
#182=AXIS2_PLACEMENT_3D('',#267,#212,#213);
#183=AXIS2_PLACEMENT_3D('',#269,#215,#216);
#184=AXIS2_PLACEMENT_3D('',#271,#217,#218);
#185=AXIS2_PLACEMENT_3D('',#274,#220,#221);
#186=AXIS2_PLACEMENT_3D('',#276,#222,#223);
#187=AXIS2_PLACEMENT_3D('',#278,#225,#226);
#188=AXIS2_PLACEMENT_3D('',#280,#227,#228);
#189=AXIS2_PLACEMENT_3D('',#283,#230,#231);
#190=AXIS2_PLACEMENT_3D('',#284,#232,#233);
#191=AXIS2_PLACEMENT_3D('',#286,#234,#235);
#192=AXIS2_PLACEMENT_3D('',#288,#237,#238);
#193=AXIS2_PLACEMENT_3D('',#290,#239,#240);
#194=AXIS2_PLACEMENT_3D('',#292,#242,#243);
#195=AXIS2_PLACEMENT_3D('',#294,#244,#245);
#196=AXIS2_PLACEMENT_3D('',#296,#247,#248);
#197=AXIS2_PLACEMENT_3D('',#298,#249,#250);
#198=AXIS2_PLACEMENT_3D('',#300,#252,#253);
#199=AXIS2_PLACEMENT_3D('',#301,#254,#255);
#200=AXIS2_PLACEMENT_3D('',#302,#256,#257);
#201=DIRECTION('axis',(0.,0.,1.));
#202=DIRECTION('refdir',(1.,0.,0.));
#203=DIRECTION('axis',(0.,0.,1.));
#204=DIRECTION('refdir',(1.,0.,0.));
#205=DIRECTION('center_axis',(0.,1.,0.));
#206=DIRECTION('ref_axis',(0.,0.,1.));
#207=DIRECTION('center_axis',(0.,-1.,0.));
#208=DIRECTION('ref_axis',(0.,0.,1.));
#209=DIRECTION('',(-1.04972719113862E-16,-0.515038074910054,0.857167300702112));
#210=DIRECTION('center_axis',(0.,-1.,0.));
#211=DIRECTION('ref_axis',(0.,0.,1.));
#212=DIRECTION('center_axis',(0.,-1.,0.));
#213=DIRECTION('ref_axis',(0.,0.,1.));
#214=DIRECTION('',(0.,-1.,0.));
#215=DIRECTION('center_axis',(0.,-1.,0.));
#216=DIRECTION('ref_axis',(0.,0.,-1.));
#217=DIRECTION('center_axis',(0.,1.,0.));
#218=DIRECTION('ref_axis',(0.,0.,-1.));
#219=DIRECTION('',(-1.04972719113862E-16,0.515038074910054,-0.857167300702112));
#220=DIRECTION('center_axis',(0.,1.,0.));
#221=DIRECTION('ref_axis',(0.,0.,-1.));
#222=DIRECTION('center_axis',(0.,1.,0.));
#223=DIRECTION('ref_axis',(0.,0.,-1.));
#224=DIRECTION('',(0.,1.,0.));
#225=DIRECTION('center_axis',(0.,1.,0.));
#226=DIRECTION('ref_axis',(0.,0.,1.));
#227=DIRECTION('center_axis',(0.,1.,0.));
#228=DIRECTION('ref_axis',(1.,0.,0.));
#229=DIRECTION('',(0.,-1.,0.));
#230=DIRECTION('center_axis',(0.,1.,0.));
#231=DIRECTION('ref_axis',(1.,0.,0.));
#232=DIRECTION('center_axis',(0.,-1.,0.));
#233=DIRECTION('ref_axis',(0.,0.,1.));
#234=DIRECTION('center_axis',(0.,1.,0.));
#235=DIRECTION('ref_axis',(1.,0.,0.));
#236=DIRECTION('',(-8.65956056235492E-17,-0.707106781186548,-0.707106781186547));
#237=DIRECTION('center_axis',(0.,1.,0.));
#238=DIRECTION('ref_axis',(0.,0.,1.));
#239=DIRECTION('center_axis',(0.,1.,0.));
#240=DIRECTION('ref_axis',(1.,0.,0.));
#241=DIRECTION('',(0.,-1.,0.));
#242=DIRECTION('center_axis',(0.,1.,0.));
#243=DIRECTION('ref_axis',(0.,0.,1.));
#244=DIRECTION('center_axis',(0.,1.,0.));
#245=DIRECTION('ref_axis',(1.,0.,0.));
#246=DIRECTION('',(8.65956056235503E-17,-0.707106781186539,0.707106781186556));
#247=DIRECTION('center_axis',(0.,1.,0.));
#248=DIRECTION('ref_axis',(0.,0.,1.));
#249=DIRECTION('center_axis',(0.,1.,0.));
#250=DIRECTION('ref_axis',(1.,0.,0.));
#251=DIRECTION('',(0.,-1.,0.));
#252=DIRECTION('center_axis',(0.,1.,0.));
#253=DIRECTION('ref_axis',(0.,0.,1.));
#254=DIRECTION('center_axis',(0.,-1.,0.));
#255=DIRECTION('ref_axis',(0.,0.,-1.));
#256=DIRECTION('',(0.,0.,1.));
#257=DIRECTION('',(1.,0.,0.));
#258=CARTESIAN_POINT('',(0.,0.,0.));
#259=CARTESIAN_POINT('',(0.,0.,0.));
#260=CARTESIAN_POINT('Origin',(0.,51.2489242262155,2.1570415377137E-31));
#261=CARTESIAN_POINT('',(3.06161699786839E-16,52.,-2.5));
#262=CARTESIAN_POINT('Origin',(0.,52.,2.1570415377137E-31));
#263=CARTESIAN_POINT('',(0.,50.4978484524311,2.1570415377137E-31));
#264=CARTESIAN_POINT('',(1.53080849893419E-16,51.2489242262155,-1.25));
#265=CARTESIAN_POINT('Origin',(0.,62.,2.1570415377137E-31));
#266=CARTESIAN_POINT('',(3.06161699786838E-16,72.,-2.5));
#267=CARTESIAN_POINT('Origin',(0.,72.,2.1570415377137E-31));
#268=CARTESIAN_POINT('',(3.06161699786838E-16,62.,-2.5));
#269=CARTESIAN_POINT('Origin',(0.,20.7510757737845,0.));
#270=CARTESIAN_POINT('',(3.06161699786838E-16,20.,2.5));
#271=CARTESIAN_POINT('Origin',(0.,20.,0.));
#272=CARTESIAN_POINT('',(0.,21.5021515475689,0.));
#273=CARTESIAN_POINT('',(1.53080849893419E-16,20.7510757737845,1.25));
#274=CARTESIAN_POINT('Origin',(0.,10.,0.));
#275=CARTESIAN_POINT('',(3.06161699786838E-16,0.,2.5));
#276=CARTESIAN_POINT('Origin',(0.,0.,0.));
#277=CARTESIAN_POINT('',(3.06161699786838E-16,10.,2.5));
#278=CARTESIAN_POINT('Origin',(0.,7.5,2.1570415377137E-31));
#279=CARTESIAN_POINT('',(-6.12323399573677E-16,15.,-5.));
#280=CARTESIAN_POINT('Origin',(0.,15.,2.1570415377137E-31));
#281=CARTESIAN_POINT('',(-6.12323399573677E-16,0.,-5.));
#282=CARTESIAN_POINT('',(-6.12323399573677E-16,7.5,-5.));
#283=CARTESIAN_POINT('Origin',(0.,0.,2.1570415377137E-31));
#284=CARTESIAN_POINT('Origin',(0.,15.5,2.1570415377137E-31));
#285=CARTESIAN_POINT('',(-4.89858719658941E-16,16.,-4.));
#286=CARTESIAN_POINT('Origin',(0.,16.,2.1570415377137E-31));
#287=CARTESIAN_POINT('',(-5.51091059616309E-16,15.5,-4.5));
#288=CARTESIAN_POINT('Origin',(0.,36.,2.1570415377137E-31));
#289=CARTESIAN_POINT('',(-4.89858719658941E-16,56.,-4.));
#290=CARTESIAN_POINT('Origin',(0.,56.,2.1570415377137E-31));
#291=CARTESIAN_POINT('',(-4.89858719658941E-16,36.,-4.));
#292=CARTESIAN_POINT('Origin',(0.,56.5,2.1570415377137E-31));
#293=CARTESIAN_POINT('',(-6.12323399573677E-16,57.,-5.));
#294=CARTESIAN_POINT('Origin',(0.,57.,2.1570415377137E-31));
#295=CARTESIAN_POINT('',(-5.51091059616309E-16,56.5,-4.5));
#296=CARTESIAN_POINT('Origin',(0.,64.5,2.1570415377137E-31));
#297=CARTESIAN_POINT('',(-6.12323399573677E-16,72.,-5.));
#298=CARTESIAN_POINT('Origin',(0.,72.,2.1570415377137E-31));
#299=CARTESIAN_POINT('',(-6.12323399573677E-16,64.5,-5.));
#300=CARTESIAN_POINT('Origin',(0.,72.,4.31408307542741E-31));
#301=CARTESIAN_POINT('Origin',(0.,0.,5.));
#302=CARTESIAN_POINT('',(0.,0.,0.));
#303=UNCERTAINTY_MEASURE_WITH_UNIT(LENGTH_MEASURE(0.01),#309,
'DISTANCE_ACCURACY_VALUE',
'Maximum model space distance between geometric entities at asserted c
onnectivities');
#304=UNCERTAINTY_MEASURE_WITH_UNIT(LENGTH_MEASURE(0.01),#309,
'DISTANCE_ACCURACY_VALUE',
'Maximum model space distance between geometric entities at asserted c
onnectivities');
#305=UNCERTAINTY_MEASURE_WITH_UNIT(LENGTH_MEASURE(0.01),#309,
'DISTANCE_ACCURACY_VALUE',
'Maximum model space distance between geometric entities at asserted c
onnectivities');
#306=(
GEOMETRIC_REPRESENTATION_CONTEXT(3)
GLOBAL_UNCERTAINTY_ASSIGNED_CONTEXT((#303))
GLOBAL_UNIT_ASSIGNED_CONTEXT((#309,#311,#312))
REPRESENTATION_CONTEXT('','3D')
);
#307=(
GEOMETRIC_REPRESENTATION_CONTEXT(3)
GLOBAL_UNCERTAINTY_ASSIGNED_CONTEXT((#304))
GLOBAL_UNIT_ASSIGNED_CONTEXT((#309,#311,#312))
REPRESENTATION_CONTEXT('','3D')
);
#308=(
GEOMETRIC_REPRESENTATION_CONTEXT(3)
GLOBAL_UNCERTAINTY_ASSIGNED_CONTEXT((#305))
GLOBAL_UNIT_ASSIGNED_CONTEXT((#309,#311,#312))
REPRESENTATION_CONTEXT('','3D')
);
#309=(
LENGTH_UNIT()
NAMED_UNIT(*)
SI_UNIT(.MILLI.,.METRE.)
);
#310=(
LENGTH_UNIT()
NAMED_UNIT(*)
SI_UNIT($,.METRE.)
);
#311=(
NAMED_UNIT(*)
PLANE_ANGLE_UNIT()
SI_UNIT($,.RADIAN.)
);
#312=(
NAMED_UNIT(*)
SI_UNIT($,.STERADIAN.)
SOLID_ANGLE_UNIT()
);
#313=SHAPE_DEFINITION_REPRESENTATION(#315,#318);
#314=SHAPE_DEFINITION_REPRESENTATION(#316,#319);
#315=PRODUCT_DEFINITION_SHAPE('',$,#321);
#316=PRODUCT_DEFINITION_SHAPE('',$,#322);
#317=PRODUCT_DEFINITION_SHAPE($,$,#14);
#318=SHAPE_REPRESENTATION('',(#177,#200),#306);
#319=SHAPE_REPRESENTATION('',(#178),#307);
#320=PRODUCT_DEFINITION_CONTEXT('part definition',#328,'design');
#321=PRODUCT_DEFINITION('Entretoises_SupportBatterie',
'Entretoises_SupportBatterie v5',#323,#320);
#322=PRODUCT_DEFINITION('Composant1','Composant1',#324,#320);
#323=PRODUCT_DEFINITION_FORMATION('',$,#330);
#324=PRODUCT_DEFINITION_FORMATION('',$,#331);
#325=PRODUCT_RELATED_PRODUCT_CATEGORY('Entretoises_SupportBatterie v5',
'Entretoises_SupportBatterie v5',(#330));
#326=PRODUCT_RELATED_PRODUCT_CATEGORY('Composant1','Composant1',(#331));
#327=APPLICATION_PROTOCOL_DEFINITION('international standard',
'automotive_design',2009,#328);
#328=APPLICATION_CONTEXT(
'Core Data for Automotive Mechanical Design Process');
#329=PRODUCT_CONTEXT('part definition',#328,'mechanical');
#330=PRODUCT('Entretoises_SupportBatterie',
'Entretoises_SupportBatterie v5',$,(#329));
#331=PRODUCT('Composant1','Composant1',$,(#329));
#332=PRESENTATION_STYLE_ASSIGNMENT((#334));
#333=PRESENTATION_STYLE_ASSIGNMENT((#335));
#334=SURFACE_STYLE_USAGE(.BOTH.,#336);
#335=SURFACE_STYLE_USAGE(.BOTH.,#337);
#336=SURFACE_SIDE_STYLE('',(#338));
#337=SURFACE_SIDE_STYLE('',(#339));
#338=SURFACE_STYLE_FILL_AREA(#340);
#339=SURFACE_STYLE_FILL_AREA(#341);
#340=FILL_AREA_STYLE('Acier - Satin\X\E9',(#342));
#341=FILL_AREA_STYLE('Aluminium - Satin\X\E9',(#343));
#342=FILL_AREA_STYLE_COLOUR('Acier - Satin\X\E9',#344);
#343=FILL_AREA_STYLE_COLOUR('Aluminium - Satin\X\E9',#345);
#344=COLOUR_RGB('Acier - Satin\X\E9',0.627450980392157,0.627450980392157,
0.627450980392157);
#345=COLOUR_RGB('Aluminium - Satin\X\E9',0.96078431372549,0.96078431372549,
0.964705882352941);
ENDSEC;
END-ISO-10303-21;
