ISO-10303-21;
HEADER;
/* Generated by software containing ST-Developer
 * from STEP Tools, Inc. (www.steptools.com) 
 */

FILE_DESCRIPTION(
/* description */ (''),
/* implementation_level */ '2;1');

FILE_NAME(
/* name */ 'C:\\Users\\Jean-Michel\\Desktop\\disque_int.stp',
/* time_stamp */ '2020-12-09T21:56:33+01:00',
/* author */ ('Jean-Michel'),
/* organization */ (''),
/* preprocessor_version */ 'ST-DEVELOPER v18.1',
/* originating_system */ 'Autodesk Inventor 2021',
/* authorisation */ '');

FILE_SCHEMA (('AUTOMOTIVE_DESIGN { 1 0 10303 214 3 1 1 }'));
ENDSEC;

DATA;
#10=MECHANICAL_DESIGN_GEOMETRIC_PRESENTATION_REPRESENTATION('',(#13),#263);
#11=SHAPE_REPRESENTATION_RELATIONSHIP('SRR','None',#270,#12);
#12=ADVANCED_BREP_SHAPE_REPRESENTATION('',(#14),#262);
#13=STYLED_ITEM('',(#279),#14);
#14=MANIFOLD_SOLID_BREP('Solide2',#131);
#15=FACE_BOUND('',#31,.T.);
#16=FACE_BOUND('',#34,.T.);
#17=PLANE('',#167);
#18=PLANE('',#172);
#19=TOROIDAL_SURFACE('',#156,149.,1.);
#20=TOROIDAL_SURFACE('',#168,149.,1.);
#21=FACE_OUTER_BOUND('',#27,.T.);
#22=FACE_OUTER_BOUND('',#28,.T.);
#23=FACE_OUTER_BOUND('',#29,.T.);
#24=FACE_OUTER_BOUND('',#30,.T.);
#25=FACE_OUTER_BOUND('',#32,.T.);
#26=FACE_OUTER_BOUND('',#33,.T.);
#27=EDGE_LOOP('',(#87,#88,#89,#90,#91,#92));
#28=EDGE_LOOP('',(#93,#94,#95,#96,#97,#98,#99));
#29=EDGE_LOOP('',(#100,#101,#102,#103,#104,#105,#106,#107));
#30=EDGE_LOOP('',(#108,#109));
#31=EDGE_LOOP('',(#110,#111));
#32=EDGE_LOOP('',(#112,#113,#114,#115,#116,#117,#118));
#33=EDGE_LOOP('',(#119,#120));
#34=EDGE_LOOP('',(#121,#122));
#35=LINE('',#228,#37);
#36=LINE('',#251,#38);
#37=VECTOR('',#181,125.);
#38=VECTOR('',#208,150.);
#39=CIRCLE('',#152,125.);
#40=CIRCLE('',#153,125.);
#41=CIRCLE('',#154,125.);
#42=CIRCLE('',#155,125.);
#43=CIRCLE('',#157,150.);
#44=CIRCLE('',#158,1.);
#45=CIRCLE('',#159,149.);
#46=CIRCLE('',#160,149.);
#47=CIRCLE('',#161,150.);
#48=CIRCLE('',#162,150.);
#49=CIRCLE('',#164,150.);
#50=CIRCLE('',#165,150.);
#51=CIRCLE('',#166,150.);
#52=CIRCLE('',#169,149.);
#53=CIRCLE('',#170,1.);
#54=CIRCLE('',#171,149.);
#55=VERTEX_POINT('',#223);
#56=VERTEX_POINT('',#224);
#57=VERTEX_POINT('',#227);
#58=VERTEX_POINT('',#229);
#59=VERTEX_POINT('',#233);
#60=VERTEX_POINT('',#234);
#61=VERTEX_POINT('',#236);
#62=VERTEX_POINT('',#238);
#63=VERTEX_POINT('',#241);
#64=VERTEX_POINT('',#245);
#65=VERTEX_POINT('',#246);
#66=VERTEX_POINT('',#248);
#67=VERTEX_POINT('',#254);
#68=VERTEX_POINT('',#255);
#69=EDGE_CURVE('',#55,#56,#39,.T.);
#70=EDGE_CURVE('',#56,#55,#40,.T.);
#71=EDGE_CURVE('',#56,#57,#35,.T.);
#72=EDGE_CURVE('',#58,#57,#41,.T.);
#73=EDGE_CURVE('',#57,#58,#42,.T.);
#74=EDGE_CURVE('',#59,#60,#43,.T.);
#75=EDGE_CURVE('',#60,#61,#44,.T.);
#76=EDGE_CURVE('',#61,#62,#45,.T.);
#77=EDGE_CURVE('',#62,#61,#46,.T.);
#78=EDGE_CURVE('',#60,#63,#47,.T.);
#79=EDGE_CURVE('',#63,#59,#48,.T.);
#80=EDGE_CURVE('',#64,#65,#49,.T.);
#81=EDGE_CURVE('',#66,#64,#50,.T.);
#82=EDGE_CURVE('',#65,#66,#51,.T.);
#83=EDGE_CURVE('',#65,#63,#36,.T.);
#84=EDGE_CURVE('',#67,#68,#52,.T.);
#85=EDGE_CURVE('',#68,#66,#53,.T.);
#86=EDGE_CURVE('',#68,#67,#54,.T.);
#87=ORIENTED_EDGE('',*,*,#69,.F.);
#88=ORIENTED_EDGE('',*,*,#70,.F.);
#89=ORIENTED_EDGE('',*,*,#71,.T.);
#90=ORIENTED_EDGE('',*,*,#72,.F.);
#91=ORIENTED_EDGE('',*,*,#73,.F.);
#92=ORIENTED_EDGE('',*,*,#71,.F.);
#93=ORIENTED_EDGE('',*,*,#74,.T.);
#94=ORIENTED_EDGE('',*,*,#75,.T.);
#95=ORIENTED_EDGE('',*,*,#76,.T.);
#96=ORIENTED_EDGE('',*,*,#77,.T.);
#97=ORIENTED_EDGE('',*,*,#75,.F.);
#98=ORIENTED_EDGE('',*,*,#78,.T.);
#99=ORIENTED_EDGE('',*,*,#79,.T.);
#100=ORIENTED_EDGE('',*,*,#80,.F.);
#101=ORIENTED_EDGE('',*,*,#81,.F.);
#102=ORIENTED_EDGE('',*,*,#82,.F.);
#103=ORIENTED_EDGE('',*,*,#83,.T.);
#104=ORIENTED_EDGE('',*,*,#78,.F.);
#105=ORIENTED_EDGE('',*,*,#74,.F.);
#106=ORIENTED_EDGE('',*,*,#79,.F.);
#107=ORIENTED_EDGE('',*,*,#83,.F.);
#108=ORIENTED_EDGE('',*,*,#77,.F.);
#109=ORIENTED_EDGE('',*,*,#76,.F.);
#110=ORIENTED_EDGE('',*,*,#72,.T.);
#111=ORIENTED_EDGE('',*,*,#73,.T.);
#112=ORIENTED_EDGE('',*,*,#84,.T.);
#113=ORIENTED_EDGE('',*,*,#85,.T.);
#114=ORIENTED_EDGE('',*,*,#81,.T.);
#115=ORIENTED_EDGE('',*,*,#80,.T.);
#116=ORIENTED_EDGE('',*,*,#82,.T.);
#117=ORIENTED_EDGE('',*,*,#85,.F.);
#118=ORIENTED_EDGE('',*,*,#86,.T.);
#119=ORIENTED_EDGE('',*,*,#84,.F.);
#120=ORIENTED_EDGE('',*,*,#86,.F.);
#121=ORIENTED_EDGE('',*,*,#69,.T.);
#122=ORIENTED_EDGE('',*,*,#70,.T.);
#123=CYLINDRICAL_SURFACE('',#151,125.);
#124=CYLINDRICAL_SURFACE('',#163,150.);
#125=ADVANCED_FACE('',(#21),#123,.F.);
#126=ADVANCED_FACE('',(#22),#19,.T.);
#127=ADVANCED_FACE('',(#23),#124,.T.);
#128=ADVANCED_FACE('',(#24,#15),#17,.F.);
#129=ADVANCED_FACE('',(#25),#20,.T.);
#130=ADVANCED_FACE('',(#26,#16),#18,.T.);
#131=CLOSED_SHELL('',(#125,#126,#127,#128,#129,#130));
#132=DERIVED_UNIT_ELEMENT(#134,1.);
#133=DERIVED_UNIT_ELEMENT(#265,3.);
#134=(
MASS_UNIT()
NAMED_UNIT(*)
SI_UNIT($,.GRAM.)
);
#135=DERIVED_UNIT((#132,#133));
#136=MEASURE_REPRESENTATION_ITEM('density measure',
POSITIVE_RATIO_MEASURE(1.),#135);
#137=PROPERTY_DEFINITION_REPRESENTATION(#142,#139);
#138=PROPERTY_DEFINITION_REPRESENTATION(#143,#140);
#139=REPRESENTATION('material name',(#141),#262);
#140=REPRESENTATION('density',(#136),#262);
#141=DESCRIPTIVE_REPRESENTATION_ITEM('G\X\E9n\X\E9rique','G\X\E9n\X\E9
rique');
#142=PROPERTY_DEFINITION('material property','material name',#272);
#143=PROPERTY_DEFINITION('material property','density of part',#272);
#144=DATE_TIME_ROLE('creation_date');
#145=APPLIED_DATE_AND_TIME_ASSIGNMENT(#146,#144,(#272));
#146=DATE_AND_TIME(#147,#148);
#147=CALENDAR_DATE(2020,9,12);
#148=LOCAL_TIME(0,0,0.,#149);
#149=COORDINATED_UNIVERSAL_TIME_OFFSET(0,0,.BEHIND.);
#150=AXIS2_PLACEMENT_3D('placement',#221,#173,#174);
#151=AXIS2_PLACEMENT_3D('',#222,#175,#176);
#152=AXIS2_PLACEMENT_3D('',#225,#177,#178);
#153=AXIS2_PLACEMENT_3D('',#226,#179,#180);
#154=AXIS2_PLACEMENT_3D('',#230,#182,#183);
#155=AXIS2_PLACEMENT_3D('',#231,#184,#185);
#156=AXIS2_PLACEMENT_3D('',#232,#186,#187);
#157=AXIS2_PLACEMENT_3D('',#235,#188,#189);
#158=AXIS2_PLACEMENT_3D('',#237,#190,#191);
#159=AXIS2_PLACEMENT_3D('',#239,#192,#193);
#160=AXIS2_PLACEMENT_3D('',#240,#194,#195);
#161=AXIS2_PLACEMENT_3D('',#242,#196,#197);
#162=AXIS2_PLACEMENT_3D('',#243,#198,#199);
#163=AXIS2_PLACEMENT_3D('',#244,#200,#201);
#164=AXIS2_PLACEMENT_3D('',#247,#202,#203);
#165=AXIS2_PLACEMENT_3D('',#249,#204,#205);
#166=AXIS2_PLACEMENT_3D('',#250,#206,#207);
#167=AXIS2_PLACEMENT_3D('',#252,#209,#210);
#168=AXIS2_PLACEMENT_3D('',#253,#211,#212);
#169=AXIS2_PLACEMENT_3D('',#256,#213,#214);
#170=AXIS2_PLACEMENT_3D('',#257,#215,#216);
#171=AXIS2_PLACEMENT_3D('',#258,#217,#218);
#172=AXIS2_PLACEMENT_3D('',#259,#219,#220);
#173=DIRECTION('axis',(0.,0.,1.));
#174=DIRECTION('refdir',(1.,0.,0.));
#175=DIRECTION('center_axis',(0.,-1.,0.));
#176=DIRECTION('ref_axis',(1.,0.,0.));
#177=DIRECTION('center_axis',(0.,-1.,0.));
#178=DIRECTION('ref_axis',(1.,0.,0.));
#179=DIRECTION('center_axis',(0.,-1.,0.));
#180=DIRECTION('ref_axis',(1.,0.,0.));
#181=DIRECTION('',(0.,-1.,0.));
#182=DIRECTION('center_axis',(0.,1.,0.));
#183=DIRECTION('ref_axis',(1.,0.,0.));
#184=DIRECTION('center_axis',(0.,1.,0.));
#185=DIRECTION('ref_axis',(1.,0.,0.));
#186=DIRECTION('center_axis',(0.,1.,0.));
#187=DIRECTION('ref_axis',(0.,0.,1.));
#188=DIRECTION('center_axis',(0.,-1.,0.));
#189=DIRECTION('ref_axis',(1.,0.,1.22464679914735E-16));
#190=DIRECTION('center_axis',(-1.,0.,1.22464679914735E-16));
#191=DIRECTION('ref_axis',(-1.22464679914735E-16,0.,-1.));
#192=DIRECTION('center_axis',(0.,1.,0.));
#193=DIRECTION('ref_axis',(1.,0.,1.22464679914735E-16));
#194=DIRECTION('center_axis',(0.,1.,0.));
#195=DIRECTION('ref_axis',(1.,0.,1.22464679914735E-16));
#196=DIRECTION('center_axis',(0.,-1.,0.));
#197=DIRECTION('ref_axis',(1.,0.,1.22464679914735E-16));
#198=DIRECTION('center_axis',(0.,-1.,0.));
#199=DIRECTION('ref_axis',(1.,0.,1.22464679914735E-16));
#200=DIRECTION('center_axis',(0.,1.,0.));
#201=DIRECTION('ref_axis',(-1.,0.,0.));
#202=DIRECTION('center_axis',(0.,1.,0.));
#203=DIRECTION('ref_axis',(1.,0.,1.22464679914735E-16));
#204=DIRECTION('center_axis',(0.,1.,0.));
#205=DIRECTION('ref_axis',(1.,0.,1.22464679914735E-16));
#206=DIRECTION('center_axis',(0.,1.,0.));
#207=DIRECTION('ref_axis',(1.,0.,1.22464679914735E-16));
#208=DIRECTION('',(0.,-1.,0.));
#209=DIRECTION('center_axis',(0.,1.,0.));
#210=DIRECTION('ref_axis',(0.,0.,1.));
#211=DIRECTION('center_axis',(0.,1.,0.));
#212=DIRECTION('ref_axis',(0.,0.,1.));
#213=DIRECTION('center_axis',(0.,-1.,0.));
#214=DIRECTION('ref_axis',(1.,0.,1.22464679914735E-16));
#215=DIRECTION('center_axis',(-1.,0.,1.22464679914735E-16));
#216=DIRECTION('ref_axis',(-1.22464679914735E-16,0.,-1.));
#217=DIRECTION('center_axis',(0.,-1.,0.));
#218=DIRECTION('ref_axis',(1.,0.,1.22464679914735E-16));
#219=DIRECTION('center_axis',(0.,1.,0.));
#220=DIRECTION('ref_axis',(0.,0.,1.));
#221=CARTESIAN_POINT('',(0.,0.,0.));
#222=CARTESIAN_POINT('Origin',(0.,10.,0.));
#223=CARTESIAN_POINT('',(125.,10.,0.));
#224=CARTESIAN_POINT('',(-125.,10.,-1.53080849893419E-14));
#225=CARTESIAN_POINT('Origin',(0.,10.,0.));
#226=CARTESIAN_POINT('Origin',(0.,10.,0.));
#227=CARTESIAN_POINT('',(-125.,0.,-1.53080849893419E-14));
#228=CARTESIAN_POINT('',(-125.,10.,-1.53080849893419E-14));
#229=CARTESIAN_POINT('',(125.,0.,0.));
#230=CARTESIAN_POINT('Origin',(0.,0.,0.));
#231=CARTESIAN_POINT('Origin',(0.,0.,0.));
#232=CARTESIAN_POINT('Origin',(0.,1.,0.));
#233=CARTESIAN_POINT('',(-150.,1.,-3.67394039744206E-14));
#234=CARTESIAN_POINT('',(-1.83697019872103E-14,1.,-150.));
#235=CARTESIAN_POINT('Origin',(0.,1.,0.));
#236=CARTESIAN_POINT('',(-1.82472373072956E-14,0.,-149.));
#237=CARTESIAN_POINT('Origin',(-1.82472373072956E-14,1.,-149.));
#238=CARTESIAN_POINT('',(-149.,0.,0.));
#239=CARTESIAN_POINT('Origin',(0.,0.,0.));
#240=CARTESIAN_POINT('Origin',(0.,0.,0.));
#241=CARTESIAN_POINT('',(150.,1.,-1.83697019872103E-14));
#242=CARTESIAN_POINT('Origin',(0.,1.,0.));
#243=CARTESIAN_POINT('Origin',(0.,1.,0.));
#244=CARTESIAN_POINT('Origin',(0.,0.,0.));
#245=CARTESIAN_POINT('',(-150.,9.,0.));
#246=CARTESIAN_POINT('',(150.,9.,-1.83697019872103E-14));
#247=CARTESIAN_POINT('Origin',(0.,9.,0.));
#248=CARTESIAN_POINT('',(-1.83697019872103E-14,9.,-150.));
#249=CARTESIAN_POINT('Origin',(0.,9.,0.));
#250=CARTESIAN_POINT('Origin',(0.,9.,0.));
#251=CARTESIAN_POINT('',(150.,0.,-1.83697019872103E-14));
#252=CARTESIAN_POINT('Origin',(0.,0.,0.));
#253=CARTESIAN_POINT('Origin',(0.,9.,0.));
#254=CARTESIAN_POINT('',(-149.,10.,-3.64944746145911E-14));
#255=CARTESIAN_POINT('',(-1.82472373072956E-14,10.,-149.));
#256=CARTESIAN_POINT('Origin',(0.,10.,0.));
#257=CARTESIAN_POINT('Origin',(-1.82472373072956E-14,9.,-149.));
#258=CARTESIAN_POINT('Origin',(0.,10.,0.));
#259=CARTESIAN_POINT('Origin',(0.,10.,0.));
#260=UNCERTAINTY_MEASURE_WITH_UNIT(LENGTH_MEASURE(0.01),#264,
'DISTANCE_ACCURACY_VALUE',
'Maximum model space distance between geometric entities at asserted c
onnectivities');
#261=UNCERTAINTY_MEASURE_WITH_UNIT(LENGTH_MEASURE(0.01),#264,
'DISTANCE_ACCURACY_VALUE',
'Maximum model space distance between geometric entities at asserted c
onnectivities');
#262=(
GEOMETRIC_REPRESENTATION_CONTEXT(3)
GLOBAL_UNCERTAINTY_ASSIGNED_CONTEXT((#260))
GLOBAL_UNIT_ASSIGNED_CONTEXT((#264,#266,#267))
REPRESENTATION_CONTEXT('','3D')
);
#263=(
GEOMETRIC_REPRESENTATION_CONTEXT(3)
GLOBAL_UNCERTAINTY_ASSIGNED_CONTEXT((#261))
GLOBAL_UNIT_ASSIGNED_CONTEXT((#264,#266,#267))
REPRESENTATION_CONTEXT('','3D')
);
#264=(
LENGTH_UNIT()
NAMED_UNIT(*)
SI_UNIT(.MILLI.,.METRE.)
);
#265=(
LENGTH_UNIT()
NAMED_UNIT(*)
SI_UNIT(.CENTI.,.METRE.)
);
#266=(
NAMED_UNIT(*)
PLANE_ANGLE_UNIT()
SI_UNIT($,.RADIAN.)
);
#267=(
NAMED_UNIT(*)
SI_UNIT($,.STERADIAN.)
SOLID_ANGLE_UNIT()
);
#268=SHAPE_DEFINITION_REPRESENTATION(#269,#270);
#269=PRODUCT_DEFINITION_SHAPE('',$,#272);
#270=SHAPE_REPRESENTATION('',(#150),#262);
#271=PRODUCT_DEFINITION_CONTEXT('part definition',#276,'design');
#272=PRODUCT_DEFINITION('disque','disque',#273,#271);
#273=PRODUCT_DEFINITION_FORMATION('',$,#278);
#274=PRODUCT_RELATED_PRODUCT_CATEGORY('disque','disque',(#278));
#275=APPLICATION_PROTOCOL_DEFINITION('international standard',
'automotive_design',2009,#276);
#276=APPLICATION_CONTEXT(
'Core Data for Automotive Mechanical Design Process');
#277=PRODUCT_CONTEXT('part definition',#276,'mechanical');
#278=PRODUCT('disque','disque',$,(#277));
#279=PRESENTATION_STYLE_ASSIGNMENT((#280));
#280=SURFACE_STYLE_USAGE(.BOTH.,#283);
#281=SURFACE_STYLE_RENDERING_WITH_PROPERTIES($,#287,(#282));
#282=SURFACE_STYLE_TRANSPARENT(0.);
#283=SURFACE_SIDE_STYLE('',(#284,#281));
#284=SURFACE_STYLE_FILL_AREA(#285);
#285=FILL_AREA_STYLE('',(#286));
#286=FILL_AREA_STYLE_COLOUR('',#287);
#287=COLOUR_RGB('',0.749019607843137,0.749019607843137,0.749019607843137);
ENDSEC;
END-ISO-10303-21;
