ISO-10303-21;
HEADER;
/* Generated by software containing ST-Developer
 * from STEP Tools, Inc. (www.steptools.com) 
 */

FILE_DESCRIPTION(
/* description */ (''),
/* implementation_level */ '2;1');

FILE_NAME(
/* name */ 'C:\\Users\\Jean-Michel\\Desktop\\disque.stp',
/* time_stamp */ '2020-12-09T16:26:15+01:00',
/* author */ ('Jean-Michel'),
/* organization */ (''),
/* preprocessor_version */ 'ST-DEVELOPER v18.1',
/* originating_system */ 'Autodesk Inventor 2021',
/* authorisation */ '');

FILE_SCHEMA (('AUTOMOTIVE_DESIGN { 1 0 10303 214 3 1 1 }'));
ENDSEC;

DATA;
#10=MECHANICAL_DESIGN_GEOMETRIC_PRESENTATION_REPRESENTATION('',(#13),#253);
#11=SHAPE_REPRESENTATION_RELATIONSHIP('SRR','None',#260,#12);
#12=ADVANCED_BREP_SHAPE_REPRESENTATION('',(#14),#252);
#13=STYLED_ITEM('',(#269),#14);
#14=MANIFOLD_SOLID_BREP('Solide2',#126);
#15=FACE_BOUND('',#34,.T.);
#16=FACE_BOUND('',#37,.T.);
#17=PLANE('',#157);
#18=PLANE('',#163);
#19=LINE('',#233,#21);
#20=LINE('',#249,#22);
#21=VECTOR('',#191,150.);
#22=VECTOR('',#212,19.625);
#23=CYLINDRICAL_SURFACE('',#153,150.);
#24=CYLINDRICAL_SURFACE('',#166,19.625);
#25=FACE_OUTER_BOUND('',#31,.T.);
#26=FACE_OUTER_BOUND('',#32,.T.);
#27=FACE_OUTER_BOUND('',#33,.T.);
#28=FACE_OUTER_BOUND('',#35,.T.);
#29=FACE_OUTER_BOUND('',#36,.T.);
#30=FACE_OUTER_BOUND('',#38,.T.);
#31=EDGE_LOOP('',(#84,#85,#86,#87,#88,#89,#90));
#32=EDGE_LOOP('',(#91,#92,#93,#94,#95,#96,#97,#98));
#33=EDGE_LOOP('',(#99,#100));
#34=EDGE_LOOP('',(#101));
#35=EDGE_LOOP('',(#102,#103,#104,#105,#106,#107,#108));
#36=EDGE_LOOP('',(#109,#110));
#37=EDGE_LOOP('',(#111,#112));
#38=EDGE_LOOP('',(#113,#114,#115,#116,#117));
#39=CIRCLE('',#147,150.);
#40=CIRCLE('',#148,1.);
#41=CIRCLE('',#149,149.);
#42=CIRCLE('',#150,149.);
#43=CIRCLE('',#151,150.);
#44=CIRCLE('',#152,150.);
#45=CIRCLE('',#154,150.);
#46=CIRCLE('',#155,150.);
#47=CIRCLE('',#156,150.);
#48=CIRCLE('',#158,19.625);
#49=CIRCLE('',#160,149.);
#50=CIRCLE('',#161,1.);
#51=CIRCLE('',#162,149.);
#52=CIRCLE('',#164,19.625);
#53=CIRCLE('',#165,19.625);
#54=VERTEX_POINT('',#215);
#55=VERTEX_POINT('',#216);
#56=VERTEX_POINT('',#218);
#57=VERTEX_POINT('',#220);
#58=VERTEX_POINT('',#223);
#59=VERTEX_POINT('',#227);
#60=VERTEX_POINT('',#228);
#61=VERTEX_POINT('',#230);
#62=VERTEX_POINT('',#235);
#63=VERTEX_POINT('',#238);
#64=VERTEX_POINT('',#239);
#65=VERTEX_POINT('',#244);
#66=VERTEX_POINT('',#245);
#67=EDGE_CURVE('',#54,#55,#39,.T.);
#68=EDGE_CURVE('',#55,#56,#40,.T.);
#69=EDGE_CURVE('',#56,#57,#41,.T.);
#70=EDGE_CURVE('',#57,#56,#42,.T.);
#71=EDGE_CURVE('',#55,#58,#43,.T.);
#72=EDGE_CURVE('',#58,#54,#44,.T.);
#73=EDGE_CURVE('',#59,#60,#45,.T.);
#74=EDGE_CURVE('',#61,#59,#46,.T.);
#75=EDGE_CURVE('',#60,#61,#47,.T.);
#76=EDGE_CURVE('',#60,#58,#19,.T.);
#77=EDGE_CURVE('',#62,#62,#48,.T.);
#78=EDGE_CURVE('',#63,#64,#49,.T.);
#79=EDGE_CURVE('',#64,#61,#50,.T.);
#80=EDGE_CURVE('',#64,#63,#51,.T.);
#81=EDGE_CURVE('',#65,#66,#52,.T.);
#82=EDGE_CURVE('',#66,#65,#53,.T.);
#83=EDGE_CURVE('',#66,#62,#20,.T.);
#84=ORIENTED_EDGE('',*,*,#67,.T.);
#85=ORIENTED_EDGE('',*,*,#68,.T.);
#86=ORIENTED_EDGE('',*,*,#69,.T.);
#87=ORIENTED_EDGE('',*,*,#70,.T.);
#88=ORIENTED_EDGE('',*,*,#68,.F.);
#89=ORIENTED_EDGE('',*,*,#71,.T.);
#90=ORIENTED_EDGE('',*,*,#72,.T.);
#91=ORIENTED_EDGE('',*,*,#73,.F.);
#92=ORIENTED_EDGE('',*,*,#74,.F.);
#93=ORIENTED_EDGE('',*,*,#75,.F.);
#94=ORIENTED_EDGE('',*,*,#76,.T.);
#95=ORIENTED_EDGE('',*,*,#71,.F.);
#96=ORIENTED_EDGE('',*,*,#67,.F.);
#97=ORIENTED_EDGE('',*,*,#72,.F.);
#98=ORIENTED_EDGE('',*,*,#76,.F.);
#99=ORIENTED_EDGE('',*,*,#70,.F.);
#100=ORIENTED_EDGE('',*,*,#69,.F.);
#101=ORIENTED_EDGE('',*,*,#77,.T.);
#102=ORIENTED_EDGE('',*,*,#78,.T.);
#103=ORIENTED_EDGE('',*,*,#79,.T.);
#104=ORIENTED_EDGE('',*,*,#74,.T.);
#105=ORIENTED_EDGE('',*,*,#73,.T.);
#106=ORIENTED_EDGE('',*,*,#75,.T.);
#107=ORIENTED_EDGE('',*,*,#79,.F.);
#108=ORIENTED_EDGE('',*,*,#80,.T.);
#109=ORIENTED_EDGE('',*,*,#78,.F.);
#110=ORIENTED_EDGE('',*,*,#80,.F.);
#111=ORIENTED_EDGE('',*,*,#81,.T.);
#112=ORIENTED_EDGE('',*,*,#82,.T.);
#113=ORIENTED_EDGE('',*,*,#81,.F.);
#114=ORIENTED_EDGE('',*,*,#82,.F.);
#115=ORIENTED_EDGE('',*,*,#83,.T.);
#116=ORIENTED_EDGE('',*,*,#77,.F.);
#117=ORIENTED_EDGE('',*,*,#83,.F.);
#118=TOROIDAL_SURFACE('',#146,149.,1.);
#119=TOROIDAL_SURFACE('',#159,149.,1.);
#120=ADVANCED_FACE('',(#25),#118,.T.);
#121=ADVANCED_FACE('',(#26),#23,.T.);
#122=ADVANCED_FACE('',(#27,#15),#17,.F.);
#123=ADVANCED_FACE('',(#28),#119,.T.);
#124=ADVANCED_FACE('',(#29,#16),#18,.T.);
#125=ADVANCED_FACE('',(#30),#24,.F.);
#126=CLOSED_SHELL('',(#120,#121,#122,#123,#124,#125));
#127=DERIVED_UNIT_ELEMENT(#129,1.);
#128=DERIVED_UNIT_ELEMENT(#255,3.);
#129=(
MASS_UNIT()
NAMED_UNIT(*)
SI_UNIT($,.GRAM.)
);
#130=DERIVED_UNIT((#127,#128));
#131=MEASURE_REPRESENTATION_ITEM('density measure',
POSITIVE_RATIO_MEASURE(1.),#130);
#132=PROPERTY_DEFINITION_REPRESENTATION(#137,#134);
#133=PROPERTY_DEFINITION_REPRESENTATION(#138,#135);
#134=REPRESENTATION('material name',(#136),#252);
#135=REPRESENTATION('density',(#131),#252);
#136=DESCRIPTIVE_REPRESENTATION_ITEM('G\X\E9n\X\E9rique','G\X\E9n\X\E9
rique');
#137=PROPERTY_DEFINITION('material property','material name',#262);
#138=PROPERTY_DEFINITION('material property','density of part',#262);
#139=DATE_TIME_ROLE('creation_date');
#140=APPLIED_DATE_AND_TIME_ASSIGNMENT(#141,#139,(#262));
#141=DATE_AND_TIME(#142,#143);
#142=CALENDAR_DATE(2020,9,12);
#143=LOCAL_TIME(0,0,0.,#144);
#144=COORDINATED_UNIVERSAL_TIME_OFFSET(0,0,.BEHIND.);
#145=AXIS2_PLACEMENT_3D('placement',#213,#167,#168);
#146=AXIS2_PLACEMENT_3D('',#214,#169,#170);
#147=AXIS2_PLACEMENT_3D('',#217,#171,#172);
#148=AXIS2_PLACEMENT_3D('',#219,#173,#174);
#149=AXIS2_PLACEMENT_3D('',#221,#175,#176);
#150=AXIS2_PLACEMENT_3D('',#222,#177,#178);
#151=AXIS2_PLACEMENT_3D('',#224,#179,#180);
#152=AXIS2_PLACEMENT_3D('',#225,#181,#182);
#153=AXIS2_PLACEMENT_3D('',#226,#183,#184);
#154=AXIS2_PLACEMENT_3D('',#229,#185,#186);
#155=AXIS2_PLACEMENT_3D('',#231,#187,#188);
#156=AXIS2_PLACEMENT_3D('',#232,#189,#190);
#157=AXIS2_PLACEMENT_3D('',#234,#192,#193);
#158=AXIS2_PLACEMENT_3D('',#236,#194,#195);
#159=AXIS2_PLACEMENT_3D('',#237,#196,#197);
#160=AXIS2_PLACEMENT_3D('',#240,#198,#199);
#161=AXIS2_PLACEMENT_3D('',#241,#200,#201);
#162=AXIS2_PLACEMENT_3D('',#242,#202,#203);
#163=AXIS2_PLACEMENT_3D('',#243,#204,#205);
#164=AXIS2_PLACEMENT_3D('',#246,#206,#207);
#165=AXIS2_PLACEMENT_3D('',#247,#208,#209);
#166=AXIS2_PLACEMENT_3D('',#248,#210,#211);
#167=DIRECTION('axis',(0.,0.,1.));
#168=DIRECTION('refdir',(1.,0.,0.));
#169=DIRECTION('center_axis',(0.,1.,0.));
#170=DIRECTION('ref_axis',(0.,0.,1.));
#171=DIRECTION('center_axis',(0.,-1.,0.));
#172=DIRECTION('ref_axis',(1.,0.,1.22464679914735E-16));
#173=DIRECTION('center_axis',(-1.,0.,1.22464679914735E-16));
#174=DIRECTION('ref_axis',(-1.22464679914735E-16,0.,-1.));
#175=DIRECTION('center_axis',(0.,1.,0.));
#176=DIRECTION('ref_axis',(1.,0.,1.22464679914735E-16));
#177=DIRECTION('center_axis',(0.,1.,0.));
#178=DIRECTION('ref_axis',(1.,0.,1.22464679914735E-16));
#179=DIRECTION('center_axis',(0.,-1.,0.));
#180=DIRECTION('ref_axis',(1.,0.,1.22464679914735E-16));
#181=DIRECTION('center_axis',(0.,-1.,0.));
#182=DIRECTION('ref_axis',(1.,0.,1.22464679914735E-16));
#183=DIRECTION('center_axis',(0.,1.,0.));
#184=DIRECTION('ref_axis',(-1.,0.,0.));
#185=DIRECTION('center_axis',(0.,1.,0.));
#186=DIRECTION('ref_axis',(1.,0.,1.22464679914735E-16));
#187=DIRECTION('center_axis',(0.,1.,0.));
#188=DIRECTION('ref_axis',(1.,0.,1.22464679914735E-16));
#189=DIRECTION('center_axis',(0.,1.,0.));
#190=DIRECTION('ref_axis',(1.,0.,1.22464679914735E-16));
#191=DIRECTION('',(0.,-1.,0.));
#192=DIRECTION('center_axis',(0.,1.,0.));
#193=DIRECTION('ref_axis',(0.,0.,1.));
#194=DIRECTION('center_axis',(0.,1.,0.));
#195=DIRECTION('ref_axis',(1.,0.,0.));
#196=DIRECTION('center_axis',(0.,1.,0.));
#197=DIRECTION('ref_axis',(0.,0.,1.));
#198=DIRECTION('center_axis',(0.,-1.,0.));
#199=DIRECTION('ref_axis',(1.,0.,1.22464679914735E-16));
#200=DIRECTION('center_axis',(-1.,0.,1.22464679914735E-16));
#201=DIRECTION('ref_axis',(-1.22464679914735E-16,0.,-1.));
#202=DIRECTION('center_axis',(0.,-1.,0.));
#203=DIRECTION('ref_axis',(1.,0.,1.22464679914735E-16));
#204=DIRECTION('center_axis',(0.,1.,0.));
#205=DIRECTION('ref_axis',(0.,0.,1.));
#206=DIRECTION('center_axis',(0.,-1.,0.));
#207=DIRECTION('ref_axis',(1.,0.,0.));
#208=DIRECTION('center_axis',(0.,-1.,0.));
#209=DIRECTION('ref_axis',(1.,0.,0.));
#210=DIRECTION('center_axis',(0.,1.,0.));
#211=DIRECTION('ref_axis',(1.,0.,0.));
#212=DIRECTION('',(0.,-1.,0.));
#213=CARTESIAN_POINT('',(0.,0.,0.));
#214=CARTESIAN_POINT('Origin',(0.,1.,0.));
#215=CARTESIAN_POINT('',(-150.,1.,-3.67394039744206E-14));
#216=CARTESIAN_POINT('',(-1.83697019872103E-14,1.,-150.));
#217=CARTESIAN_POINT('Origin',(0.,1.,0.));
#218=CARTESIAN_POINT('',(-1.82472373072956E-14,0.,-149.));
#219=CARTESIAN_POINT('Origin',(-1.82472373072956E-14,1.,-149.));
#220=CARTESIAN_POINT('',(-149.,0.,0.));
#221=CARTESIAN_POINT('Origin',(0.,0.,0.));
#222=CARTESIAN_POINT('Origin',(0.,0.,0.));
#223=CARTESIAN_POINT('',(150.,1.,-1.83697019872103E-14));
#224=CARTESIAN_POINT('Origin',(0.,1.,0.));
#225=CARTESIAN_POINT('Origin',(0.,1.,0.));
#226=CARTESIAN_POINT('Origin',(0.,0.,0.));
#227=CARTESIAN_POINT('',(-150.,9.,0.));
#228=CARTESIAN_POINT('',(150.,9.,-1.83697019872103E-14));
#229=CARTESIAN_POINT('Origin',(0.,9.,0.));
#230=CARTESIAN_POINT('',(-1.83697019872103E-14,9.,-150.));
#231=CARTESIAN_POINT('Origin',(0.,9.,0.));
#232=CARTESIAN_POINT('Origin',(0.,9.,0.));
#233=CARTESIAN_POINT('',(150.,0.,-1.83697019872103E-14));
#234=CARTESIAN_POINT('Origin',(0.,0.,0.));
#235=CARTESIAN_POINT('',(-19.625,0.,2.40336934332668E-15));
#236=CARTESIAN_POINT('Origin',(0.,0.,0.));
#237=CARTESIAN_POINT('Origin',(0.,9.,0.));
#238=CARTESIAN_POINT('',(-149.,10.,-3.64944746145911E-14));
#239=CARTESIAN_POINT('',(-1.82472373072956E-14,10.,-149.));
#240=CARTESIAN_POINT('Origin',(0.,10.,0.));
#241=CARTESIAN_POINT('Origin',(-1.82472373072956E-14,9.,-149.));
#242=CARTESIAN_POINT('Origin',(0.,10.,0.));
#243=CARTESIAN_POINT('Origin',(0.,10.,0.));
#244=CARTESIAN_POINT('',(19.625,10.,0.));
#245=CARTESIAN_POINT('',(-19.625,10.,2.40336934332668E-15));
#246=CARTESIAN_POINT('Origin',(0.,10.,0.));
#247=CARTESIAN_POINT('Origin',(0.,10.,0.));
#248=CARTESIAN_POINT('Origin',(0.,-414.381903478459,0.));
#249=CARTESIAN_POINT('',(-19.625,-414.381903478459,2.40336934332668E-15));
#250=UNCERTAINTY_MEASURE_WITH_UNIT(LENGTH_MEASURE(0.01),#254,
'DISTANCE_ACCURACY_VALUE',
'Maximum model space distance between geometric entities at asserted c
onnectivities');
#251=UNCERTAINTY_MEASURE_WITH_UNIT(LENGTH_MEASURE(0.01),#254,
'DISTANCE_ACCURACY_VALUE',
'Maximum model space distance between geometric entities at asserted c
onnectivities');
#252=(
GEOMETRIC_REPRESENTATION_CONTEXT(3)
GLOBAL_UNCERTAINTY_ASSIGNED_CONTEXT((#250))
GLOBAL_UNIT_ASSIGNED_CONTEXT((#254,#256,#257))
REPRESENTATION_CONTEXT('','3D')
);
#253=(
GEOMETRIC_REPRESENTATION_CONTEXT(3)
GLOBAL_UNCERTAINTY_ASSIGNED_CONTEXT((#251))
GLOBAL_UNIT_ASSIGNED_CONTEXT((#254,#256,#257))
REPRESENTATION_CONTEXT('','3D')
);
#254=(
LENGTH_UNIT()
NAMED_UNIT(*)
SI_UNIT(.MILLI.,.METRE.)
);
#255=(
LENGTH_UNIT()
NAMED_UNIT(*)
SI_UNIT(.CENTI.,.METRE.)
);
#256=(
NAMED_UNIT(*)
PLANE_ANGLE_UNIT()
SI_UNIT($,.RADIAN.)
);
#257=(
NAMED_UNIT(*)
SI_UNIT($,.STERADIAN.)
SOLID_ANGLE_UNIT()
);
#258=SHAPE_DEFINITION_REPRESENTATION(#259,#260);
#259=PRODUCT_DEFINITION_SHAPE('',$,#262);
#260=SHAPE_REPRESENTATION('',(#145),#252);
#261=PRODUCT_DEFINITION_CONTEXT('part definition',#266,'design');
#262=PRODUCT_DEFINITION('disque','disque',#263,#261);
#263=PRODUCT_DEFINITION_FORMATION('',$,#268);
#264=PRODUCT_RELATED_PRODUCT_CATEGORY('disque','disque',(#268));
#265=APPLICATION_PROTOCOL_DEFINITION('international standard',
'automotive_design',2009,#266);
#266=APPLICATION_CONTEXT(
'Core Data for Automotive Mechanical Design Process');
#267=PRODUCT_CONTEXT('part definition',#266,'mechanical');
#268=PRODUCT('disque','disque',$,(#267));
#269=PRESENTATION_STYLE_ASSIGNMENT((#270));
#270=SURFACE_STYLE_USAGE(.BOTH.,#273);
#271=SURFACE_STYLE_RENDERING_WITH_PROPERTIES($,#277,(#272));
#272=SURFACE_STYLE_TRANSPARENT(0.);
#273=SURFACE_SIDE_STYLE('',(#274,#271));
#274=SURFACE_STYLE_FILL_AREA(#275);
#275=FILL_AREA_STYLE('',(#276));
#276=FILL_AREA_STYLE_COLOUR('',#277);
#277=COLOUR_RGB('',0.749019607843137,0.749019607843137,0.749019607843137);
ENDSEC;
END-ISO-10303-21;
