ISO-10303-21;
HEADER;
FILE_DESCRIPTION (( 'STEP AP214' ),
    '1' );
FILE_NAME ('Bomerang ep5 MM1325.STEP',
    '2020-12-21T09:39:54',
    ( '' ),
    ( '' ),
    'SwSTEP 2.0',
    'SolidWorks 2017',
    '' );
FILE_SCHEMA (( 'AUTOMOTIVE_DESIGN' ));
ENDSEC;

DATA;
#1 = VECTOR ( 'NONE', #137, 1000.000000000000000 ) ;
#2 = CARTESIAN_POINT ( 'NONE',  ( 48.38187067104235700, 4.096274978792363800, 5.000000000000000000 ) ) ;
#3 = DIRECTION ( 'NONE',  ( 1.000000000000000000, 0.0000000000000000000, 0.0000000000000000000 ) ) ;
#4 = VERTEX_POINT ( 'NONE', #125 ) ;
#5 = ORIENTED_EDGE ( 'NONE', *, *, #47, .F. ) ;
#6 = CARTESIAN_POINT ( 'NONE',  ( 48.35938568596169800, 3.646987441493955400, 5.000000000000000000 ) ) ;
#7 = DIRECTION ( 'NONE',  ( 0.0000000000000000000, 0.0000000000000000000, 1.000000000000000000 ) ) ;
#8 = CIRCLE ( 'NONE', #204, 4.499999999999983100 ) ;
#9 = EDGE_CURVE ( 'NONE', #169, #305, #8, .T. ) ;
#10 = ADVANCED_FACE ( 'NONE', ( #193 ), #77, .F. ) ;
#11 = COLOUR_RGB ( '',0.8980392156862745400, 0.9176470588235293700, 0.9294117647058823800 ) ;
#12 = AXIS2_PLACEMENT_3D ( 'NONE', #90, #259, #68 ) ;
#13 = ORIENTED_EDGE ( 'NONE', *, *, #47, .T. ) ;
#14 = VECTOR ( 'NONE', #28, 1000.000000000000000 ) ;
#15 = CARTESIAN_POINT ( 'NONE',  ( 0.0000000000000000000, 0.0000000000000000000, 0.0000000000000000000 ) ) ;
#16 =( NAMED_UNIT ( * ) PLANE_ANGLE_UNIT ( ) SI_UNIT ( $, .RADIAN. ) );
#17 = DIRECTION ( 'NONE',  ( -0.0000000000000000000, -0.0000000000000000000, -1.000000000000000000 ) ) ;
#18 = EDGE_CURVE ( 'NONE', #159, #266, #284, .T. ) ;
#19 = CARTESIAN_POINT ( 'NONE',  ( 48.35938568596169800, 3.646987441493955400, 0.0000000000000000000 ) ) ;
#20 = CYLINDRICAL_SURFACE ( 'NONE', #111, 4.499999999999983100 ) ;
#21 = DIRECTION ( 'NONE',  ( -0.3735133152799065000, 0.9276248181827678700, 0.0000000000000000000 ) ) ;
#22 = CARTESIAN_POINT ( 'NONE',  ( 48.38187067104235700, 24.09627497879236600, 5.000000000000000000 ) ) ;
#23 = CIRCLE ( 'NONE', #135, 4.499999999999997300 ) ;
#24 = ORIENTED_EDGE ( 'NONE', *, *, #302, .T. ) ;
#25 = SURFACE_STYLE_FILL_AREA ( #267 ) ;
#26 = EDGE_CURVE ( 'NONE', #27, #211, #291, .T. ) ;
#27 = VERTEX_POINT ( 'NONE', #280 ) ;
#28 = DIRECTION ( 'NONE',  ( -0.0000000000000000000, -0.0000000000000000000, -1.000000000000000000 ) ) ;
#29 = CARTESIAN_POINT ( 'NONE',  ( 44.18791940729195000, 35.35213143995842700, 0.0000000000000000000 ) ) ;
#30 = AXIS2_PLACEMENT_3D ( 'NONE', #22, #206, #21 ) ;
#31 = ORIENTED_EDGE ( 'NONE', *, *, #51, .F. ) ;
#32 = DIRECTION ( 'NONE',  ( 1.000000000000000000, 0.0000000000000000000, 0.0000000000000000000 ) ) ;
#33 = FACE_OUTER_BOUND ( 'NONE', #109, .T. ) ;
#34 = DIRECTION ( 'NONE',  ( 0.09984167495520239500, 0.9950033366487469600, -0.0000000000000000000 ) ) ;
#35 = DIRECTION ( 'NONE',  ( 0.0000000000000000000, 0.0000000000000000000, 1.000000000000000000 ) ) ;
#36 = LINE ( 'NONE', #53, #275 ) ;
#37 = ORIENTED_EDGE ( 'NONE', *, *, #283, .T. ) ;
#38 = VERTEX_POINT ( 'NONE', #29 ) ;
#39 =( NAMED_UNIT ( * ) SI_UNIT ( $, .STERADIAN. ) SOLID_ANGLE_UNIT ( ) );
#40 = EDGE_CURVE ( 'NONE', #312, #257, #36, .T. ) ;
#41 = EDGE_CURVE ( 'NONE', #159, #305, #50, .T. ) ;
#42 = LINE ( 'NONE', #66, #296 ) ;
#43 = ORIENTED_EDGE ( 'NONE', *, *, #320, .T. ) ;
#44 = CARTESIAN_POINT ( 'NONE',  ( 44.64673751824328500, 33.37252316062004800, 0.0000000000000000000 ) ) ;
#45 = CARTESIAN_POINT ( 'NONE',  ( 59.58333838737310400, 25.58527497879235900, 5.000000000000000000 ) ) ;
#46 = PLANE ( 'NONE',  #30 ) ;
#47 = EDGE_CURVE ( 'NONE', #334, #181, #132, .T. ) ;
#48 = ORIENTED_EDGE ( 'NONE', *, *, #320, .F. ) ;
#49 = SURFACE_STYLE_USAGE ( .BOTH. , #73 ) ;
#50 = LINE ( 'NONE', #158, #323 ) ;
#51 = EDGE_CURVE ( 'NONE', #312, #133, #149, .T. ) ;
#52 = DIRECTION ( 'NONE',  ( -1.000000000000000000, 0.0000000000000000000, 0.0000000000000000000 ) ) ;
#53 = CARTESIAN_POINT ( 'NONE',  ( 48.38187067104235700, 4.096274978792363800, 5.000000000000000000 ) ) ;
#54 = EDGE_LOOP ( 'NONE', ( #107, #126, #59, #300 ) ) ;
#55 = VECTOR ( 'NONE', #217, 1000.000000000000000 ) ;
#56 = UNCERTAINTY_MEASURE_WITH_UNIT (LENGTH_MEASURE( 1.000000000000000100E-005 ), #64, 'distance_accuracy_value', 'NONE');
#57 = EDGE_CURVE ( 'NONE', #266, #27, #185, .T. ) ;
#58 = ORIENTED_EDGE ( 'NONE', *, *, #9, .T. ) ;
#59 = ORIENTED_EDGE ( 'NONE', *, *, #40, .F. ) ;
#60 = ORIENTED_EDGE ( 'NONE', *, *, #333, .T. ) ;
#61 = FACE_OUTER_BOUND ( 'NONE', #248, .T. ) ;
#62 = CARTESIAN_POINT ( 'NONE',  ( 48.38187067104235700, 24.09627497879236600, 0.0000000000000000000 ) ) ;
#63 = ADVANCED_FACE ( 'NONE', ( #162 ), #95, .F. ) ;
#64 =( LENGTH_UNIT ( ) NAMED_UNIT ( * ) SI_UNIT ( .MILLI., .METRE. ) );
#65 = LINE ( 'NONE', #190, #164 ) ;
#66 = CARTESIAN_POINT ( 'NONE',  ( 52.72910129634060900, 37.33173971929681300, 0.0000000000000000000 ) ) ;
#67 = CARTESIAN_POINT ( 'NONE',  ( 48.38187067104235700, 24.09627497879236600, 0.0000000000000000000 ) ) ;
#68 = DIRECTION ( 'NONE',  ( 1.000000000000000000, 0.0000000000000000000, 0.0000000000000000000 ) ) ;
#69 = ORIENTED_EDGE ( 'NONE', *, *, #93, .F. ) ;
#70 = CARTESIAN_POINT ( 'NONE',  ( 48.38187067104235700, 4.096274978792363800, 5.000000000000000000 ) ) ;
#71 = LINE ( 'NONE', #160, #14 ) ;
#72 = EDGE_CURVE ( 'NONE', #4, #38, #168, .T. ) ;
#73 = SURFACE_SIDE_STYLE ('',( #25 ) ) ;
#74 = ORIENTED_EDGE ( 'NONE', *, *, #41, .T. ) ;
#75 = AXIS2_PLACEMENT_3D ( 'NONE', #339, #86, #258 ) ;
#76 = EDGE_CURVE ( 'NONE', #281, #326, #170, .T. ) ;
#77 = PLANE ( 'NONE',  #128 ) ;
#78 = EDGE_LOOP ( 'NONE', ( #238, #188, #5, #269, #279, #209, #48, #180 ) ) ;
#79 = DIRECTION ( 'NONE',  ( 1.000000000000000000, 0.0000000000000000000, -0.0000000000000000000 ) ) ;
#80 = CARTESIAN_POINT ( 'NONE',  ( 59.58333838737310400, 25.58527497879235900, 0.0000000000000000000 ) ) ;
#81 = CLOSED_SHELL ( 'NONE', ( #105, #82, #219, #252, #201, #330, #10, #63, #136, #311 ) ) ;
#82 = ADVANCED_FACE ( 'NONE', ( #203 ), #108, .T. ) ;
#83 = UNCERTAINTY_MEASURE_WITH_UNIT (LENGTH_MEASURE( 1.000000000000000100E-005 ), #153, 'distance_accuracy_value', 'NONE');
#84 = SURFACE_SIDE_STYLE ('',( #290 ) ) ;
#85 = EDGE_CURVE ( 'NONE', #211, #4, #150, .T. ) ;
#86 = DIRECTION ( 'NONE',  ( 0.0000000000000000000, 0.0000000000000000000, 1.000000000000000000 ) ) ;
#87 = ORIENTED_EDGE ( 'NONE', *, *, #72, .T. ) ;
#88 = ORIENTED_EDGE ( 'NONE', *, *, #18, .T. ) ;
#89 = VECTOR ( 'NONE', #186, 1000.000000000000000 ) ;
#90 = CARTESIAN_POINT ( 'NONE',  ( 52.85938568596167600, 3.646987441493955400, 5.000000000000000000 ) ) ;
#91 = DIRECTION ( 'NONE',  ( 1.000000000000000000, 0.0000000000000000000, 0.0000000000000000000 ) ) ;
#92 =( GEOMETRIC_REPRESENTATION_CONTEXT ( 3 ) GLOBAL_UNCERTAINTY_ASSIGNED_CONTEXT ( ( #213 ) ) GLOBAL_UNIT_ASSIGNED_CONTEXT ( ( #143, #16, #173 ) ) REPRESENTATION_CONTEXT ( 'NONE', 'WORKASPACE' ) );
#93 = EDGE_CURVE ( 'NONE', #266, #334, #340, .T. ) ;
#94 =( NAMED_UNIT ( * ) PLANE_ANGLE_UNIT ( ) SI_UNIT ( $, .RADIAN. ) );
#95 = PLANE ( 'NONE',  #223 ) ;
#96 = ORIENTED_EDGE ( 'NONE', *, *, #122, .T. ) ;
#97 = ORIENTED_EDGE ( 'NONE', *, *, #263, .F. ) ;
#98 = CARTESIAN_POINT ( 'NONE',  ( 48.68791940729194300, 35.35213143995842700, 5.000000000000000000 ) ) ;
#99 = VECTOR ( 'NONE', #34, 1000.000000000000000 ) ;
#100 = EDGE_CURVE ( 'NONE', #211, #299, #265, .T. ) ;
#101 = EDGE_CURVE ( 'NONE', #133, #169, #65, .T. ) ;
#102 = VECTOR ( 'NONE', #144, 1000.000000000000000 ) ;
#103 = ORIENTED_EDGE ( 'NONE', *, *, #76, .F. ) ;
#104 = CARTESIAN_POINT ( 'NONE',  ( 44.64673751824328500, 33.37252316062004800, 5.000000000000000000 ) ) ;
#105 = ADVANCED_FACE ( 'NONE', ( #194 ), #124, .T. ) ;
#106 = DIRECTION ( 'NONE',  ( 1.000000000000000000, 0.0000000000000000000, 0.0000000000000000000 ) ) ;
#107 = ORIENTED_EDGE ( 'NONE', *, *, #101, .T. ) ;
#108 = CYLINDRICAL_SURFACE ( 'NONE', #192, 4.499999999999997300 ) ;
#109 = EDGE_LOOP ( 'NONE', ( #43, #31, #335, #255 ) ) ;
#110 = DIRECTION ( 'NONE',  ( 1.000000000000000000, 0.0000000000000000000, 0.0000000000000000000 ) ) ;
#111 = AXIS2_PLACEMENT_3D ( 'NONE', #226, #17, #174 ) ;
#112 = AXIS2_PLACEMENT_3D ( 'NONE', #245, #7, #268 ) ;
#113 = APPLICATION_PROTOCOL_DEFINITION ( 'draft international standard', 'automotive_design', 1998, #313 ) ;
#114 = APPLICATION_CONTEXT ( 'automotive_design' ) ;
#115 = ORIENTED_EDGE ( 'NONE', *, *, #18, .F. ) ;
#116 = CARTESIAN_POINT ( 'NONE',  ( 57.33690070088103100, 3.197699904195543800, 0.0000000000000000000 ) ) ;
#117 = CARTESIAN_POINT ( 'NONE',  ( 48.38187067104235700, 24.09627497879236600, 5.000000000000000000 ) ) ;
#118 = AXIS2_PLACEMENT_3D ( 'NONE', #249, #303, #52 ) ;
#119 = CARTESIAN_POINT ( 'NONE',  ( 52.85938568596167600, 3.646987441493955400, 0.0000000000000000000 ) ) ;
#120 = ORIENTED_EDGE ( 'NONE', *, *, #85, .T. ) ;
#121 = EDGE_LOOP ( 'NONE', ( #60, #274, #247, #24 ) ) ;
#122 = EDGE_CURVE ( 'NONE', #299, #38, #71, .T. ) ;
#123 = CARTESIAN_POINT ( 'NONE',  ( 52.72910129634060900, 37.33173971929681300, 5.000000000000000000 ) ) ;
#124 = CYLINDRICAL_SURFACE ( 'NONE', #118, 4.499999999999983100 ) ;
#125 = CARTESIAN_POINT ( 'NONE',  ( 52.72910129634060900, 37.33173971929681300, 0.0000000000000000000 ) ) ;
#126 = ORIENTED_EDGE ( 'NONE', *, *, #242, .F. ) ;
#127 = STYLED_ITEM ( 'NONE', ( #138 ), #329 ) ;
#128 = AXIS2_PLACEMENT_3D ( 'NONE', #130, #309, #272 ) ;
#129 = DIRECTION ( 'NONE',  ( 0.0000000000000000000, 0.0000000000000000000, 1.000000000000000000 ) ) ;
#130 = CARTESIAN_POINT ( 'NONE',  ( 59.58333838737310400, 25.58527497879235900, 5.000000000000000000 ) ) ;
#131 = PRESENTATION_STYLE_ASSIGNMENT (( #49 ) ) ;
#132 = LINE ( 'NONE', #80, #336 ) ;
#133 = VERTEX_POINT ( 'NONE', #62 ) ;
#134 = DIRECTION ( 'NONE',  ( -0.8637106426841512100, -0.5039880213994480900, 0.0000000000000000000 ) ) ;
#135 = AXIS2_PLACEMENT_3D ( 'NONE', #270, #129, #293 ) ;
#136 = ADVANCED_FACE ( 'NONE', ( #61 ), #187, .T. ) ;
#137 = DIRECTION ( 'NONE',  ( -0.0000000000000000000, -0.0000000000000000000, -1.000000000000000000 ) ) ;
#138 = PRESENTATION_STYLE_ASSIGNMENT (( #254 ) ) ;
#139 = PRODUCT_CONTEXT ( 'NONE', #114, 'mechanical' ) ;
#140 = ORIENTED_EDGE ( 'NONE', *, *, #41, .F. ) ;
#141 = APPLICATION_PROTOCOL_DEFINITION ( 'draft international standard', 'automotive_design', 1998, #114 ) ;
#142 = AXIS2_PLACEMENT_3D ( 'NONE', #220, #273, #3 ) ;
#143 =( LENGTH_UNIT ( ) NAMED_UNIT ( * ) SI_UNIT ( .MILLI., .METRE. ) );
#144 = DIRECTION ( 'NONE',  ( -0.0000000000000000000, -0.0000000000000000000, -1.000000000000000000 ) ) ;
#145 = ORIENTED_EDGE ( 'NONE', *, *, #26, .T. ) ;
#146 = EDGE_LOOP ( 'NONE', ( #115, #74, #207, #69 ) ) ;
#147 = PRESENTATION_LAYER_ASSIGNMENT (  '', '', ( #127 ) ) ;
#148 = AXIS2_PLACEMENT_3D ( 'NONE', #166, #304, #32 ) ;
#149 = LINE ( 'NONE', #243, #1 ) ;
#150 = LINE ( 'NONE', #244, #234 ) ;
#151 = CIRCLE ( 'NONE', #324, 4.499999999999983100 ) ;
#152 = DIRECTION ( 'NONE',  ( -0.0000000000000000000, -0.0000000000000000000, -1.000000000000000000 ) ) ;
#153 =( LENGTH_UNIT ( ) NAMED_UNIT ( * ) SI_UNIT ( .MILLI., .METRE. ) );
#154 = CARTESIAN_POINT ( 'NONE',  ( 57.33690070088103100, 3.197699904195543800, 5.000000000000000000 ) ) ;
#155 = SHAPE_DEFINITION_REPRESENTATION ( #235, #329 ) ;
#156 = LINE ( 'NONE', #70, #337 ) ;
#157 = ORIENTED_EDGE ( 'NONE', *, *, #163, .F. ) ;
#158 = CARTESIAN_POINT ( 'NONE',  ( 48.35938568596169800, 3.646987441493955400, 5.000000000000000000 ) ) ;
#159 = VERTEX_POINT ( 'NONE', #6 ) ;
#160 = CARTESIAN_POINT ( 'NONE',  ( 44.18791940729195000, 35.35213143995842700, 5.000000000000000000 ) ) ;
#161 = AXIS2_PLACEMENT_3D ( 'NONE', #98, #35, #79 ) ;
#162 = FACE_OUTER_BOUND ( 'NONE', #121, .T. ) ;
#163 = EDGE_CURVE ( 'NONE', #299, #281, #23, .T. ) ;
#164 = VECTOR ( 'NONE', #271, 1000.000000000000000 ) ;
#165 = ORIENTED_EDGE ( 'NONE', *, *, #242, .T. ) ;
#166 = CARTESIAN_POINT ( 'NONE',  ( 48.68791940729194300, 35.35213143995842700, 0.0000000000000000000 ) ) ;
#167 = CARTESIAN_POINT ( 'NONE',  ( 52.72910129634060900, 37.33173971929681300, 5.000000000000000000 ) ) ;
#168 = CIRCLE ( 'NONE', #148, 4.499999999999997300 ) ;
#169 = VERTEX_POINT ( 'NONE', #239 ) ;
#170 = LINE ( 'NONE', #104, #89 ) ;
#171 = MECHANICAL_DESIGN_GEOMETRIC_PRESENTATION_REPRESENTATION (  '', ( #127 ), #191 ) ;
#172 = DIRECTION ( 'NONE',  ( 0.0000000000000000000, 0.0000000000000000000, 1.000000000000000000 ) ) ;
#173 =( NAMED_UNIT ( * ) SI_UNIT ( $, .STERADIAN. ) SOLID_ANGLE_UNIT ( ) );
#174 = DIRECTION ( 'NONE',  ( -1.000000000000000000, 0.0000000000000000000, 0.0000000000000000000 ) ) ;
#175 = EDGE_LOOP ( 'NONE', ( #140, #97, #165, #58 ) ) ;
#176 = FACE_OUTER_BOUND ( 'NONE', #78, .T. ) ;
#177 = CARTESIAN_POINT ( 'NONE',  ( 44.18791940729195000, 35.35213143995842700, 5.000000000000000000 ) ) ;
#178 = CARTESIAN_POINT ( 'NONE',  ( 57.33690070088103100, 3.197699904195543800, 5.000000000000000000 ) ) ;
#179 = STYLED_ITEM ( 'NONE', ( #131 ), #182 ) ;
#180 = ORIENTED_EDGE ( 'NONE', *, *, #184, .F. ) ;
#181 = VERTEX_POINT ( 'NONE', #278 ) ;
#182 = MANIFOLD_SOLID_BREP ( 'Boss.-Extru.1', #81 ) ;
#183 = VECTOR ( 'NONE', #327, 1000.000000000000200 ) ;
#184 = EDGE_CURVE ( 'NONE', #38, #326, #306, .T. ) ;
#185 = LINE ( 'NONE', #325, #99 ) ;
#186 = DIRECTION ( 'NONE',  ( -0.0000000000000000000, -0.0000000000000000000, -1.000000000000000000 ) ) ;
#187 = PLANE ( 'NONE',  #161 ) ;
#188 = ORIENTED_EDGE ( 'NONE', *, *, #333, .F. ) ;
#189 = LINE ( 'NONE', #67, #321 ) ;
#190 = CARTESIAN_POINT ( 'NONE',  ( 48.38187067104235700, 4.096274978792363800, 0.0000000000000000000 ) ) ;
#191 =( GEOMETRIC_REPRESENTATION_CONTEXT ( 3 ) GLOBAL_UNCERTAINTY_ASSIGNED_CONTEXT ( ( #56 ) ) GLOBAL_UNIT_ASSIGNED_CONTEXT ( ( #64, #224, #39 ) ) REPRESENTATION_CONTEXT ( 'NONE', 'WORKASPACE' ) );
#192 = AXIS2_PLACEMENT_3D ( 'NONE', #277, #152, #198 ) ;
#193 = FACE_OUTER_BOUND ( 'NONE', #261, .T. ) ;
#194 = FACE_OUTER_BOUND ( 'NONE', #146, .T. ) ;
#195 = ORIENTED_EDGE ( 'NONE', *, *, #40, .T. ) ;
#196 = ORIENTED_EDGE ( 'NONE', *, *, #57, .F. ) ;
#197 = DIRECTION ( 'NONE',  ( -0.0000000000000000000, -1.000000000000000000, -0.0000000000000000000 ) ) ;
#198 = DIRECTION ( 'NONE',  ( -1.000000000000000000, 0.0000000000000000000, 0.0000000000000000000 ) ) ;
#199 = PRESENTATION_LAYER_ASSIGNMENT (  '', '', ( #179 ) ) ;
#200 = LINE ( 'NONE', #45, #102 ) ;
#201 = ADVANCED_FACE ( 'NONE', ( #214 ), #298, .F. ) ;
#202 = ORIENTED_EDGE ( 'NONE', *, *, #263, .T. ) ;
#203 = FACE_OUTER_BOUND ( 'NONE', #256, .T. ) ;
#204 = AXIS2_PLACEMENT_3D ( 'NONE', #218, #331, #106 ) ;
#205 = DIRECTION ( 'NONE',  ( 0.3735133152799065000, -0.9276248181827678700, -0.0000000000000000000 ) ) ;
#206 = DIRECTION ( 'NONE',  ( 0.9276248181827678700, 0.3735133152799065000, -0.0000000000000000000 ) ) ;
#207 = ORIENTED_EDGE ( 'NONE', *, *, #236, .T. ) ;
#208 = CIRCLE ( 'NONE', #12, 4.499999999999983100 ) ;
#209 = ORIENTED_EDGE ( 'NONE', *, *, #101, .F. ) ;
#210 = DIRECTION ( 'NONE',  ( 0.09984167495520239500, 0.9950033366487469600, -0.0000000000000000000 ) ) ;
#211 = VERTEX_POINT ( 'NONE', #123 ) ;
#212 = MECHANICAL_DESIGN_GEOMETRIC_PRESENTATION_REPRESENTATION (  '', ( #179 ), #231 ) ;
#213 = UNCERTAINTY_MEASURE_WITH_UNIT (LENGTH_MEASURE( 1.000000000000000100E-005 ), #143, 'distance_accuracy_value', 'NONE');
#214 = FACE_OUTER_BOUND ( 'NONE', #54, .T. ) ;
#215 = EDGE_LOOP ( 'NONE', ( #240, #227, #120, #87 ) ) ;
#216 = DIRECTION ( 'NONE',  ( -0.0000000000000000000, -0.0000000000000000000, -1.000000000000000000 ) ) ;
#217 = DIRECTION ( 'NONE',  ( -0.0000000000000000000, -0.0000000000000000000, -1.000000000000000000 ) ) ;
#218 = CARTESIAN_POINT ( 'NONE',  ( 52.85938568596167600, 3.646987441493955400, 0.0000000000000000000 ) ) ;
#219 = ADVANCED_FACE ( 'NONE', ( #295 ), #315, .T. ) ;
#220 = CARTESIAN_POINT ( 'NONE',  ( 52.85938568596167600, 3.646987441493955400, 5.000000000000000000 ) ) ;
#221 = ORIENTED_EDGE ( 'NONE', *, *, #163, .T. ) ;
#222 = COLOUR_RGB ( '',0.8980392156862745400, 0.9176470588235293700, 0.9294117647058823800 ) ;
#223 = AXIS2_PLACEMENT_3D ( 'NONE', #308, #134, #328 ) ;
#224 =( NAMED_UNIT ( * ) PLANE_ANGLE_UNIT ( ) SI_UNIT ( $, .RADIAN. ) );
#225 = DIRECTION ( 'NONE',  ( -0.5039880213994480900, 0.8637106426841512100, -0.0000000000000000000 ) ) ;
#226 = CARTESIAN_POINT ( 'NONE',  ( 52.85938568596167600, 3.646987441493955400, 5.000000000000000000 ) ) ;
#227 = ORIENTED_EDGE ( 'NONE', *, *, #100, .F. ) ;
#228 = ORIENTED_EDGE ( 'NONE', *, *, #93, .T. ) ;
#229 = CARTESIAN_POINT ( 'NONE',  ( 48.38187067104235700, 24.09627497879236600, 5.000000000000000000 ) ) ;
#230 = DIRECTION ( 'NONE',  ( 0.0000000000000000000, 0.0000000000000000000, 1.000000000000000000 ) ) ;
#231 =( GEOMETRIC_REPRESENTATION_CONTEXT ( 3 ) GLOBAL_UNCERTAINTY_ASSIGNED_CONTEXT ( ( #83 ) ) GLOBAL_UNIT_ASSIGNED_CONTEXT ( ( #153, #94, #322 ) ) REPRESENTATION_CONTEXT ( 'NONE', 'WORKASPACE' ) );
#232 = CARTESIAN_POINT ( 'NONE',  ( 48.68791940729194300, 35.35213143995842700, 5.000000000000000000 ) ) ;
#233 = FACE_OUTER_BOUND ( 'NONE', #175, .T. ) ;
#234 = VECTOR ( 'NONE', #216, 1000.000000000000000 ) ;
#235 = PRODUCT_DEFINITION_SHAPE ( 'NONE', 'NONE',  #262 ) ;
#236 = EDGE_CURVE ( 'NONE', #305, #334, #151, .T. ) ;
#237 = LINE ( 'NONE', #229, #246 ) ;
#238 = ORIENTED_EDGE ( 'NONE', *, *, #72, .F. ) ;
#239 = CARTESIAN_POINT ( 'NONE',  ( 48.38187067104235700, 4.096274978792363800, 0.0000000000000000000 ) ) ;
#240 = ORIENTED_EDGE ( 'NONE', *, *, #122, .F. ) ;
#241 = AXIS2_PLACEMENT_3D ( 'NONE', #15, #172, #332 ) ;
#242 = EDGE_CURVE ( 'NONE', #257, #169, #156, .T. ) ;
#243 = CARTESIAN_POINT ( 'NONE',  ( 48.38187067104235700, 24.09627497879236600, 5.000000000000000000 ) ) ;
#244 = CARTESIAN_POINT ( 'NONE',  ( 52.72910129634060900, 37.33173971929681300, 5.000000000000000000 ) ) ;
#245 = CARTESIAN_POINT ( 'NONE',  ( 48.68791940729194300, 35.35213143995842700, 5.000000000000000000 ) ) ;
#246 = VECTOR ( 'NONE', #205, 1000.000000000000000 ) ;
#247 = ORIENTED_EDGE ( 'NONE', *, *, #26, .F. ) ;
#248 = EDGE_LOOP ( 'NONE', ( #288, #221, #37, #195, #202, #88, #307, #145 ) ) ;
#249 = CARTESIAN_POINT ( 'NONE',  ( 52.85938568596167600, 3.646987441493955400, 5.000000000000000000 ) ) ;
#250 = DIRECTION ( 'NONE',  ( 0.0000000000000000000, 0.0000000000000000000, -1.000000000000000000 ) ) ;
#251 = DIRECTION ( 'NONE',  ( -0.0000000000000000000, -0.0000000000000000000, -1.000000000000000000 ) ) ;
#252 = ADVANCED_FACE ( 'NONE', ( #33 ), #46, .F. ) ;
#253 = AXIS2_PLACEMENT_3D ( 'NONE', #319, #230, #286 ) ;
#254 = SURFACE_STYLE_USAGE ( .BOTH. , #84 ) ;
#255 = ORIENTED_EDGE ( 'NONE', *, *, #76, .T. ) ;
#256 = EDGE_LOOP ( 'NONE', ( #157, #96, #294, #103 ) ) ;
#257 = VERTEX_POINT ( 'NONE', #341 ) ;
#258 = DIRECTION ( 'NONE',  ( 1.000000000000000000, 0.0000000000000000000, -0.0000000000000000000 ) ) ;
#259 = DIRECTION ( 'NONE',  ( 0.0000000000000000000, 0.0000000000000000000, 1.000000000000000000 ) ) ;
#260 = DIRECTION ( 'NONE',  ( -0.0000000000000000000, -0.0000000000000000000, -1.000000000000000000 ) ) ;
#261 = EDGE_LOOP ( 'NONE', ( #13, #316, #196, #228 ) ) ;
#262 = PRODUCT_DEFINITION ( 'UNKNOWN', '', #282, #297 ) ;
#263 = EDGE_CURVE ( 'NONE', #257, #159, #208, .T. ) ;
#264 = DIRECTION ( 'NONE',  ( -1.000000000000000000, 0.0000000000000000000, 0.0000000000000000000 ) ) ;
#265 = CIRCLE ( 'NONE', #112, 4.499999999999997300 ) ;
#266 = VERTEX_POINT ( 'NONE', #178 ) ;
#267 = FILL_AREA_STYLE ('',( #276 ) ) ;
#268 = DIRECTION ( 'NONE',  ( 1.000000000000000000, 0.0000000000000000000, 0.0000000000000000000 ) ) ;
#269 = ORIENTED_EDGE ( 'NONE', *, *, #236, .F. ) ;
#270 = CARTESIAN_POINT ( 'NONE',  ( 48.68791940729194300, 35.35213143995842700, 5.000000000000000000 ) ) ;
#271 = DIRECTION ( 'NONE',  ( -0.0000000000000000000, -1.000000000000000000, -0.0000000000000000000 ) ) ;
#272 = DIRECTION ( 'NONE',  ( -0.09984167495520239500, -0.9950033366487469600, 0.0000000000000000000 ) ) ;
#273 = DIRECTION ( 'NONE',  ( 0.0000000000000000000, 0.0000000000000000000, 1.000000000000000000 ) ) ;
#274 = ORIENTED_EDGE ( 'NONE', *, *, #85, .F. ) ;
#275 = VECTOR ( 'NONE', #197, 1000.000000000000000 ) ;
#276 = FILL_AREA_STYLE_COLOUR ( '', #222 ) ;
#277 = CARTESIAN_POINT ( 'NONE',  ( 48.68791940729194300, 35.35213143995842700, 5.000000000000000000 ) ) ;
#278 = CARTESIAN_POINT ( 'NONE',  ( 59.58333838737310400, 25.58527497879235900, 0.0000000000000000000 ) ) ;
#279 = ORIENTED_EDGE ( 'NONE', *, *, #9, .F. ) ;
#280 = CARTESIAN_POINT ( 'NONE',  ( 59.58333838737310400, 25.58527497879235900, 5.000000000000000000 ) ) ;
#281 = VERTEX_POINT ( 'NONE', #287 ) ;
#282 = PRODUCT_DEFINITION_FORMATION_WITH_SPECIFIED_SOURCE ( 'ANY', '', #292, .NOT_KNOWN. ) ;
#283 = EDGE_CURVE ( 'NONE', #281, #312, #237, .T. ) ;
#284 = CIRCLE ( 'NONE', #142, 4.499999999999983100 ) ;
#285 = FILL_AREA_STYLE ('',( #314 ) ) ;
#286 = DIRECTION ( 'NONE',  ( 1.000000000000000000, 0.0000000000000000000, 0.0000000000000000000 ) ) ;
#287 = CARTESIAN_POINT ( 'NONE',  ( 44.64673751824328500, 33.37252316062004800, 5.000000000000000000 ) ) ;
#288 = ORIENTED_EDGE ( 'NONE', *, *, #100, .T. ) ;
#289 = DIRECTION ( 'NONE',  ( 0.0000000000000000000, 0.0000000000000000000, 1.000000000000000000 ) ) ;
#290 = SURFACE_STYLE_FILL_AREA ( #285 ) ;
#291 = LINE ( 'NONE', #167, #183 ) ;
#292 = PRODUCT ( 'Bomerang ep5 MM1325', 'Bomerang ep5 MM1325', '', ( #139 ) ) ;
#293 = DIRECTION ( 'NONE',  ( 1.000000000000000000, 0.0000000000000000000, 0.0000000000000000000 ) ) ;
#294 = ORIENTED_EDGE ( 'NONE', *, *, #184, .T. ) ;
#295 = FACE_OUTER_BOUND ( 'NONE', #215, .T. ) ;
#296 = VECTOR ( 'NONE', #225, 1000.000000000000200 ) ;
#297 = PRODUCT_DEFINITION_CONTEXT ( 'detailed design', #313, 'design' ) ;
#298 = PLANE ( 'NONE',  #310 ) ;
#299 = VERTEX_POINT ( 'NONE', #177 ) ;
#300 = ORIENTED_EDGE ( 'NONE', *, *, #51, .T. ) ;
#301 = PRODUCT_RELATED_PRODUCT_CATEGORY ( 'part', '', ( #292 ) ) ;
#302 = EDGE_CURVE ( 'NONE', #27, #181, #200, .T. ) ;
#303 = DIRECTION ( 'NONE',  ( -0.0000000000000000000, -0.0000000000000000000, -1.000000000000000000 ) ) ;
#304 = DIRECTION ( 'NONE',  ( 0.0000000000000000000, 0.0000000000000000000, 1.000000000000000000 ) ) ;
#305 = VERTEX_POINT ( 'NONE', #19 ) ;
#306 = CIRCLE ( 'NONE', #253, 4.499999999999997300 ) ;
#307 = ORIENTED_EDGE ( 'NONE', *, *, #57, .T. ) ;
#308 = CARTESIAN_POINT ( 'NONE',  ( 52.72910129634060900, 37.33173971929681300, 5.000000000000000000 ) ) ;
#309 = DIRECTION ( 'NONE',  ( -0.9950033366487469600, 0.09984167495520239500, 0.0000000000000000000 ) ) ;
#310 = AXIS2_PLACEMENT_3D ( 'NONE', #2, #110, #250 ) ;
#311 = ADVANCED_FACE ( 'NONE', ( #176 ), #317, .F. ) ;
#312 = VERTEX_POINT ( 'NONE', #117 ) ;
#313 = APPLICATION_CONTEXT ( 'automotive_design' ) ;
#314 = FILL_AREA_STYLE_COLOUR ( '', #11 ) ;
#315 = CYLINDRICAL_SURFACE ( 'NONE', #342, 4.499999999999997300 ) ;
#316 = ORIENTED_EDGE ( 'NONE', *, *, #302, .F. ) ;
#317 = PLANE ( 'NONE',  #75 ) ;
#318 = DIRECTION ( 'NONE',  ( -0.0000000000000000000, -0.0000000000000000000, -1.000000000000000000 ) ) ;
#319 = CARTESIAN_POINT ( 'NONE',  ( 48.68791940729194300, 35.35213143995842700, 0.0000000000000000000 ) ) ;
#320 = EDGE_CURVE ( 'NONE', #326, #133, #189, .T. ) ;
#321 = VECTOR ( 'NONE', #338, 1000.000000000000000 ) ;
#322 =( NAMED_UNIT ( * ) SI_UNIT ( $, .STERADIAN. ) SOLID_ANGLE_UNIT ( ) );
#323 = VECTOR ( 'NONE', #251, 1000.000000000000000 ) ;
#324 = AXIS2_PLACEMENT_3D ( 'NONE', #119, #289, #91 ) ;
#325 = CARTESIAN_POINT ( 'NONE',  ( 59.58333838737310400, 25.58527497879235900, 5.000000000000000000 ) ) ;
#326 = VERTEX_POINT ( 'NONE', #44 ) ;
#327 = DIRECTION ( 'NONE',  ( -0.5039880213994480900, 0.8637106426841512100, -0.0000000000000000000 ) ) ;
#328 = DIRECTION ( 'NONE',  ( 0.5039880213994480900, -0.8637106426841512100, 0.0000000000000000000 ) ) ;
#329 = ADVANCED_BREP_SHAPE_REPRESENTATION ( 'Bomerang ep5 MM1325', ( #182, #241 ), #92 ) ;
#330 = ADVANCED_FACE ( 'NONE', ( #233 ), #20, .T. ) ;
#331 = DIRECTION ( 'NONE',  ( 0.0000000000000000000, 0.0000000000000000000, 1.000000000000000000 ) ) ;
#332 = DIRECTION ( 'NONE',  ( 1.000000000000000000, 0.0000000000000000000, 0.0000000000000000000 ) ) ;
#333 = EDGE_CURVE ( 'NONE', #181, #4, #42, .T. ) ;
#334 = VERTEX_POINT ( 'NONE', #116 ) ;
#335 = ORIENTED_EDGE ( 'NONE', *, *, #283, .F. ) ;
#336 = VECTOR ( 'NONE', #210, 1000.000000000000000 ) ;
#337 = VECTOR ( 'NONE', #318, 1000.000000000000000 ) ;
#338 = DIRECTION ( 'NONE',  ( 0.3735133152799065000, -0.9276248181827678700, -0.0000000000000000000 ) ) ;
#339 = CARTESIAN_POINT ( 'NONE',  ( 48.68791940729194300, 35.35213143995842700, 0.0000000000000000000 ) ) ;
#340 = LINE ( 'NONE', #154, #55 ) ;
#341 = CARTESIAN_POINT ( 'NONE',  ( 48.38187067104235700, 4.096274978792363800, 5.000000000000000000 ) ) ;
#342 = AXIS2_PLACEMENT_3D ( 'NONE', #232, #260, #264 ) ;
ENDSEC;
END-ISO-10303-21;
