ISO-10303-21;
HEADER;
FILE_DESCRIPTION (( 'STEP AP214' ),
    '1' );
FILE_NAME ('ROF2005-moyeux roue folle.STEP',
    '2020-04-30T15:09:01',
    ( '' ),
    ( '' ),
    'SwSTEP 2.0',
    'SolidWorks 2016',
    '' );
FILE_SCHEMA (( 'AUTOMOTIVE_DESIGN' ));
ENDSEC;

DATA;
#1 = DIRECTION ( 'NONE',  ( -0.0000000000000000000, -0.0000000000000000000, -1.000000000000000000 ) ) ;
#2 = APPLICATION_CONTEXT ( 'automotive_design' ) ;
#3 = EDGE_CURVE ( 'NONE', #4, #150, #99, .T. ) ;
#4 = VERTEX_POINT ( 'NONE', #54 ) ;
#5 = SHAPE_DEFINITION_REPRESENTATION ( #170, #52 ) ;
#6 = EDGE_LOOP ( 'NONE', ( #107, #143 ) ) ;
#7 =( GEOMETRIC_REPRESENTATION_CONTEXT ( 3 ) GLOBAL_UNCERTAINTY_ASSIGNED_CONTEXT ( ( #126 ) ) GLOBAL_UNIT_ASSIGNED_CONTEXT ( ( #166, #112, #49 ) ) REPRESENTATION_CONTEXT ( 'NONE', 'WORKASPACE' ) );
#8 = EDGE_CURVE ( 'NONE', #124, #64, #74, .T. ) ;
#9 = VERTEX_POINT ( 'NONE', #25 ) ;
#10 = EDGE_LOOP ( 'NONE', ( #13, #19 ) ) ;
#11 = CARTESIAN_POINT ( 'NONE',  ( 5.000000000000000000, 6.123233995736766300E-016, 36.00000000000000000 ) ) ;
#12 = CARTESIAN_POINT ( 'NONE',  ( 0.0000000000000000000, 0.0000000000000000000, 0.0000000000000000000 ) ) ;
#13 = ORIENTED_EDGE ( 'NONE', *, *, #131, .T. ) ;
#14 = DIRECTION ( 'NONE',  ( -0.0000000000000000000, -0.0000000000000000000, -1.000000000000000000 ) ) ;
#15 = CIRCLE ( 'NONE', #105, 9.899999999999998600 ) ;
#16 = ADVANCED_FACE ( 'NONE', ( #42, #34 ), #158, .F. ) ;
#17 = APPLICATION_CONTEXT ( 'automotive_design' ) ;
#18 = ADVANCED_FACE ( 'NONE', ( #72 ), #208, .F. ) ;
#19 = ORIENTED_EDGE ( 'NONE', *, *, #119, .T. ) ;
#20 = CLOSED_SHELL ( 'NONE', ( #18, #110, #203, #16, #198, #94 ) ) ;
#21 = AXIS2_PLACEMENT_3D ( 'NONE', #120, #53, #40 ) ;
#22 = MANIFOLD_SOLID_BREP ( 'Boss.-Extru.1', #20 ) ;
#23 =( NAMED_UNIT ( * ) PLANE_ANGLE_UNIT ( ) SI_UNIT ( $, .RADIAN. ) );
#24 =( NAMED_UNIT ( * ) SI_UNIT ( $, .STERADIAN. ) SOLID_ANGLE_UNIT ( ) );
#25 = CARTESIAN_POINT ( 'NONE',  ( 5.000000000000000000, 6.123233995736766300E-016, 0.0000000000000000000 ) ) ;
#26 = DIRECTION ( 'NONE',  ( 0.0000000000000000000, 0.0000000000000000000, 1.000000000000000000 ) ) ;
#27 = CARTESIAN_POINT ( 'NONE',  ( 0.0000000000000000000, 0.0000000000000000000, 36.00000000000000000 ) ) ;
#28 = DIRECTION ( 'NONE',  ( -0.0000000000000000000, -0.0000000000000000000, -1.000000000000000000 ) ) ;
#29 = DIRECTION ( 'NONE',  ( 0.0000000000000000000, 0.0000000000000000000, 1.000000000000000000 ) ) ;
#30 = VERTEX_POINT ( 'NONE', #45 ) ;
#31 =( GEOMETRIC_REPRESENTATION_CONTEXT ( 3 ) GLOBAL_UNCERTAINTY_ASSIGNED_CONTEXT ( ( #205 ) ) GLOBAL_UNIT_ASSIGNED_CONTEXT ( ( #81, #183, #33 ) ) REPRESENTATION_CONTEXT ( 'NONE', 'WORKASPACE' ) );
#32 = SURFACE_STYLE_USAGE ( .BOTH. , #84 ) ;
#33 =( NAMED_UNIT ( * ) SI_UNIT ( $, .STERADIAN. ) SOLID_ANGLE_UNIT ( ) );
#34 = FACE_BOUND ( 'NONE', #10, .T. ) ;
#35 =( GEOMETRIC_REPRESENTATION_CONTEXT ( 3 ) GLOBAL_UNCERTAINTY_ASSIGNED_CONTEXT ( ( #137 ) ) GLOBAL_UNIT_ASSIGNED_CONTEXT ( ( #102, #23, #24 ) ) REPRESENTATION_CONTEXT ( 'NONE', 'WORKASPACE' ) );
#36 = ORIENTED_EDGE ( 'NONE', *, *, #37, .F. ) ;
#37 = EDGE_CURVE ( 'NONE', #4, #88, #141, .T. ) ;
#38 = EDGE_LOOP ( 'NONE', ( #39, #89, #154, #151 ) ) ;
#39 = ORIENTED_EDGE ( 'NONE', *, *, #87, .F. ) ;
#40 = DIRECTION ( 'NONE',  ( 1.000000000000000000, 0.0000000000000000000, 0.0000000000000000000 ) ) ;
#41 = DIRECTION ( 'NONE',  ( 1.000000000000000000, 0.0000000000000000000, 0.0000000000000000000 ) ) ;
#42 = FACE_OUTER_BOUND ( 'NONE', #129, .T. ) ;
#43 = CARTESIAN_POINT ( 'NONE',  ( 0.0000000000000000000, 0.0000000000000000000, 0.0000000000000000000 ) ) ;
#44 = DIRECTION ( 'NONE',  ( -0.0000000000000000000, -0.0000000000000000000, -1.000000000000000000 ) ) ;
#45 = CARTESIAN_POINT ( 'NONE',  ( -5.000000000000000000, 0.0000000000000000000, 0.0000000000000000000 ) ) ;
#46 = ORIENTED_EDGE ( 'NONE', *, *, #98, .F. ) ;
#47 = EDGE_CURVE ( 'NONE', #83, #88, #15, .T. ) ;
#48 = LINE ( 'NONE', #180, #195 ) ;
#49 =( NAMED_UNIT ( * ) SI_UNIT ( $, .STERADIAN. ) SOLID_ANGLE_UNIT ( ) );
#50 = PRESENTATION_STYLE_ASSIGNMENT (( #32 ) ) ;
#51 = AXIS2_PLACEMENT_3D ( 'NONE', #69, #116, #67 ) ;
#52 = ADVANCED_BREP_SHAPE_REPRESENTATION ( 'ROF2005-moyeux roue folle', ( #22, #55 ), #31 ) ;
#53 = DIRECTION ( 'NONE',  ( 0.0000000000000000000, 0.0000000000000000000, 1.000000000000000000 ) ) ;
#54 = CARTESIAN_POINT ( 'NONE',  ( -9.899999999999998600, 0.0000000000000000000, 36.00000000000000000 ) ) ;
#55 = AXIS2_PLACEMENT_3D ( 'NONE', #96, #165, #145 ) ;
#56 = ORIENTED_EDGE ( 'NONE', *, *, #111, .T. ) ;
#57 = ORIENTED_EDGE ( 'NONE', *, *, #90, .F. ) ;
#58 = DIRECTION ( 'NONE',  ( 1.000000000000000000, 0.0000000000000000000, 0.0000000000000000000 ) ) ;
#59 = CARTESIAN_POINT ( 'NONE',  ( 0.0000000000000000000, 0.0000000000000000000, 0.0000000000000000000 ) ) ;
#60 = CIRCLE ( 'NONE', #138, 9.899999999999998600 ) ;
#61 = STYLED_ITEM ( 'NONE', ( #157 ), #22 ) ;
#62 = CYLINDRICAL_SURFACE ( 'NONE', #63, 5.000000000000000000 ) ;
#63 = AXIS2_PLACEMENT_3D ( 'NONE', #193, #109, #214 ) ;
#64 = VERTEX_POINT ( 'NONE', #75 ) ;
#65 = AXIS2_PLACEMENT_3D ( 'NONE', #27, #142, #58 ) ;
#66 = CARTESIAN_POINT ( 'NONE',  ( -9.899999999999998600, 0.0000000000000000000, 0.0000000000000000000 ) ) ;
#67 = DIRECTION ( 'NONE',  ( 1.000000000000000000, 0.0000000000000000000, 0.0000000000000000000 ) ) ;
#68 = LINE ( 'NONE', #11, #127 ) ;
#69 = CARTESIAN_POINT ( 'NONE',  ( 0.0000000000000000000, 0.0000000000000000000, 36.00000000000000000 ) ) ;
#70 = AXIS2_PLACEMENT_3D ( 'NONE', #103, #173, #118 ) ;
#71 = FACE_BOUND ( 'NONE', #130, .T. ) ;
#72 = FACE_OUTER_BOUND ( 'NONE', #196, .T. ) ;
#73 = CARTESIAN_POINT ( 'NONE',  ( 9.899999999999998600, 1.212400331155879500E-015, 36.00000000000000000 ) ) ;
#74 = CIRCLE ( 'NONE', #51, 5.000000000000000000 ) ;
#75 = CARTESIAN_POINT ( 'NONE',  ( 5.000000000000000000, 6.123233995736766300E-016, 36.00000000000000000 ) ) ;
#76 = DIRECTION ( 'NONE',  ( 0.0000000000000000000, 0.0000000000000000000, 1.000000000000000000 ) ) ;
#77 = AXIS2_PLACEMENT_3D ( 'NONE', #113, #144, #128 ) ;
#78 = COLOUR_RGB ( '',0.7921568627450980000, 0.8196078431372548800, 0.9333333333333333500 ) ;
#79 = CARTESIAN_POINT ( 'NONE',  ( 0.0000000000000000000, 0.0000000000000000000, 36.00000000000000000 ) ) ;
#80 = FACE_OUTER_BOUND ( 'NONE', #184, .T. ) ;
#81 =( LENGTH_UNIT ( ) NAMED_UNIT ( * ) SI_UNIT ( .MILLI., .METRE. ) );
#82 = CIRCLE ( 'NONE', #65, 9.899999999999998600 ) ;
#83 = VERTEX_POINT ( 'NONE', #122 ) ;
#84 = SURFACE_SIDE_STYLE ('',( #121 ) ) ;
#85 = ORIENTED_EDGE ( 'NONE', *, *, #111, .F. ) ;
#86 = ORIENTED_EDGE ( 'NONE', *, *, #147, .F. ) ;
#87 = EDGE_CURVE ( 'NONE', #64, #9, #68, .T. ) ;
#88 = VERTEX_POINT ( 'NONE', #66 ) ;
#89 = ORIENTED_EDGE ( 'NONE', *, *, #98, .T. ) ;
#90 = EDGE_CURVE ( 'NONE', #150, #4, #82, .T. ) ;
#91 = DIRECTION ( 'NONE',  ( 1.000000000000000000, 0.0000000000000000000, 0.0000000000000000000 ) ) ;
#92 = CARTESIAN_POINT ( 'NONE',  ( -5.000000000000000000, 0.0000000000000000000, 36.00000000000000000 ) ) ;
#93 = ORIENTED_EDGE ( 'NONE', *, *, #47, .T. ) ;
#94 = ADVANCED_FACE ( 'NONE', ( #153 ), #62, .F. ) ;
#95 = DIRECTION ( 'NONE',  ( 1.000000000000000000, 0.0000000000000000000, 0.0000000000000000000 ) ) ;
#96 = CARTESIAN_POINT ( 'NONE',  ( 0.0000000000000000000, 0.0000000000000000000, 0.0000000000000000000 ) ) ;
#97 = PRODUCT_CONTEXT ( 'NONE', #17, 'mechanical' ) ;
#98 = EDGE_CURVE ( 'NONE', #64, #124, #156, .T. ) ;
#99 = CIRCLE ( 'NONE', #21, 9.899999999999998600 ) ;
#100 = AXIS2_PLACEMENT_3D ( 'NONE', #175, #134, #192 ) ;
#101 = SURFACE_STYLE_USAGE ( .BOTH. , #210 ) ;
#102 =( LENGTH_UNIT ( ) NAMED_UNIT ( * ) SI_UNIT ( .MILLI., .METRE. ) );
#103 = CARTESIAN_POINT ( 'NONE',  ( 0.0000000000000000000, 0.0000000000000000000, 0.0000000000000000000 ) ) ;
#104 = FACE_OUTER_BOUND ( 'NONE', #172, .T. ) ;
#105 = AXIS2_PLACEMENT_3D ( 'NONE', #43, #125, #91 ) ;
#106 = CARTESIAN_POINT ( 'NONE',  ( 0.0000000000000000000, 0.0000000000000000000, 36.00000000000000000 ) ) ;
#107 = ORIENTED_EDGE ( 'NONE', *, *, #3, .T. ) ;
#108 = DIRECTION ( 'NONE',  ( 0.0000000000000000000, 0.0000000000000000000, 1.000000000000000000 ) ) ;
#109 = DIRECTION ( 'NONE',  ( -0.0000000000000000000, -0.0000000000000000000, -1.000000000000000000 ) ) ;
#110 = ADVANCED_FACE ( 'NONE', ( #80 ), #168, .T. ) ;
#111 = EDGE_CURVE ( 'NONE', #88, #83, #60, .T. ) ;
#112 =( NAMED_UNIT ( * ) PLANE_ANGLE_UNIT ( ) SI_UNIT ( $, .RADIAN. ) );
#113 = CARTESIAN_POINT ( 'NONE',  ( 0.0000000000000000000, 0.0000000000000000000, 36.00000000000000000 ) ) ;
#114 = FACE_OUTER_BOUND ( 'NONE', #6, .T. ) ;
#115 = MECHANICAL_DESIGN_GEOMETRIC_PRESENTATION_REPRESENTATION (  '', ( #61 ), #35 ) ;
#116 = DIRECTION ( 'NONE',  ( 0.0000000000000000000, 0.0000000000000000000, 1.000000000000000000 ) ) ;
#117 = PRESENTATION_LAYER_ASSIGNMENT (  '', '', ( #61 ) ) ;
#118 = DIRECTION ( 'NONE',  ( 1.000000000000000000, 0.0000000000000000000, -0.0000000000000000000 ) ) ;
#119 = EDGE_CURVE ( 'NONE', #9, #30, #211, .T. ) ;
#120 = CARTESIAN_POINT ( 'NONE',  ( 0.0000000000000000000, 0.0000000000000000000, 36.00000000000000000 ) ) ;
#121 = SURFACE_STYLE_FILL_AREA ( #149 ) ;
#122 = CARTESIAN_POINT ( 'NONE',  ( 9.899999999999998600, 1.212400331155879500E-015, 0.0000000000000000000 ) ) ;
#123 = AXIS2_PLACEMENT_3D ( 'NONE', #106, #44, #164 ) ;
#124 = VERTEX_POINT ( 'NONE', #92 ) ;
#125 = DIRECTION ( 'NONE',  ( 0.0000000000000000000, 0.0000000000000000000, 1.000000000000000000 ) ) ;
#126 = UNCERTAINTY_MEASURE_WITH_UNIT (LENGTH_MEASURE( 1.000000000000000100E-005 ), #166, 'distance_accuracy_value', 'NONE');
#127 = VECTOR ( 'NONE', #28, 1000.000000000000000 ) ;
#128 = DIRECTION ( 'NONE',  ( 1.000000000000000000, 0.0000000000000000000, -0.0000000000000000000 ) ) ;
#129 = EDGE_LOOP ( 'NONE', ( #85, #212 ) ) ;
#130 = EDGE_LOOP ( 'NONE', ( #179, #46 ) ) ;
#131 = EDGE_CURVE ( 'NONE', #30, #9, #206, .T. ) ;
#132 = ORIENTED_EDGE ( 'NONE', *, *, #201, .F. ) ;
#133 = ORIENTED_EDGE ( 'NONE', *, *, #147, .T. ) ;
#134 = DIRECTION ( 'NONE',  ( -0.0000000000000000000, -0.0000000000000000000, -1.000000000000000000 ) ) ;
#135 = AXIS2_PLACEMENT_3D ( 'NONE', #79, #108, #41 ) ;
#136 = PLANE ( 'NONE',  #77 ) ;
#137 = UNCERTAINTY_MEASURE_WITH_UNIT (LENGTH_MEASURE( 1.000000000000000100E-005 ), #102, 'distance_accuracy_value', 'NONE');
#138 = AXIS2_PLACEMENT_3D ( 'NONE', #59, #26, #139 ) ;
#139 = DIRECTION ( 'NONE',  ( 1.000000000000000000, 0.0000000000000000000, 0.0000000000000000000 ) ) ;
#140 = DIRECTION ( 'NONE',  ( 1.000000000000000000, 0.0000000000000000000, 0.0000000000000000000 ) ) ;
#141 = LINE ( 'NONE', #199, #202 ) ;
#142 = DIRECTION ( 'NONE',  ( 0.0000000000000000000, 0.0000000000000000000, 1.000000000000000000 ) ) ;
#143 = ORIENTED_EDGE ( 'NONE', *, *, #90, .T. ) ;
#144 = DIRECTION ( 'NONE',  ( 0.0000000000000000000, 0.0000000000000000000, 1.000000000000000000 ) ) ;
#145 = DIRECTION ( 'NONE',  ( 1.000000000000000000, 0.0000000000000000000, 0.0000000000000000000 ) ) ;
#146 = VECTOR ( 'NONE', #182, 1000.000000000000000 ) ;
#147 = EDGE_CURVE ( 'NONE', #150, #83, #48, .T. ) ;
#148 = APPLICATION_PROTOCOL_DEFINITION ( 'draft international standard', 'automotive_design', 1998, #2 ) ;
#149 = FILL_AREA_STYLE ('',( #163 ) ) ;
#150 = VERTEX_POINT ( 'NONE', #73 ) ;
#151 = ORIENTED_EDGE ( 'NONE', *, *, #119, .F. ) ;
#152 = PRODUCT_DEFINITION ( 'UNKNOWN', '', #162, #190 ) ;
#153 = FACE_OUTER_BOUND ( 'NONE', #38, .T. ) ;
#154 = ORIENTED_EDGE ( 'NONE', *, *, #201, .T. ) ;
#155 = PRESENTATION_LAYER_ASSIGNMENT (  '', '', ( #207 ) ) ;
#156 = CIRCLE ( 'NONE', #135, 5.000000000000000000 ) ;
#157 = PRESENTATION_STYLE_ASSIGNMENT (( #101 ) ) ;
#158 = PLANE ( 'NONE',  #70 ) ;
#159 = SURFACE_STYLE_FILL_AREA ( #209 ) ;
#160 = ORIENTED_EDGE ( 'NONE', *, *, #3, .F. ) ;
#161 = DIRECTION ( 'NONE',  ( -1.000000000000000000, 0.0000000000000000000, 0.0000000000000000000 ) ) ;
#162 = PRODUCT_DEFINITION_FORMATION_WITH_SPECIFIED_SOURCE ( 'ANY', '', #197, .NOT_KNOWN. ) ;
#163 = FILL_AREA_STYLE_COLOUR ( '', #78 ) ;
#164 = DIRECTION ( 'NONE',  ( -1.000000000000000000, 0.0000000000000000000, 0.0000000000000000000 ) ) ;
#165 = DIRECTION ( 'NONE',  ( 0.0000000000000000000, 0.0000000000000000000, 1.000000000000000000 ) ) ;
#166 =( LENGTH_UNIT ( ) NAMED_UNIT ( * ) SI_UNIT ( .MILLI., .METRE. ) );
#167 = CARTESIAN_POINT ( 'NONE',  ( -5.000000000000000000, 0.0000000000000000000, 36.00000000000000000 ) ) ;
#168 = CYLINDRICAL_SURFACE ( 'NONE', #123, 9.899999999999998600 ) ;
#169 = AXIS2_PLACEMENT_3D ( 'NONE', #178, #194, #161 ) ;
#170 = PRODUCT_DEFINITION_SHAPE ( 'NONE', 'NONE',  #152 ) ;
#171 = ORIENTED_EDGE ( 'NONE', *, *, #87, .T. ) ;
#172 = EDGE_LOOP ( 'NONE', ( #86, #160, #189, #56 ) ) ;
#173 = DIRECTION ( 'NONE',  ( 0.0000000000000000000, 0.0000000000000000000, 1.000000000000000000 ) ) ;
#174 = ORIENTED_EDGE ( 'NONE', *, *, #8, .T. ) ;
#175 = CARTESIAN_POINT ( 'NONE',  ( 0.0000000000000000000, 0.0000000000000000000, 36.00000000000000000 ) ) ;
#176 = AXIS2_PLACEMENT_3D ( 'NONE', #12, #76, #140 ) ;
#177 = CYLINDRICAL_SURFACE ( 'NONE', #169, 9.899999999999998600 ) ;
#178 = CARTESIAN_POINT ( 'NONE',  ( 0.0000000000000000000, 0.0000000000000000000, 36.00000000000000000 ) ) ;
#179 = ORIENTED_EDGE ( 'NONE', *, *, #8, .F. ) ;
#180 = CARTESIAN_POINT ( 'NONE',  ( 9.899999999999998600, 1.212400331155879500E-015, 36.00000000000000000 ) ) ;
#181 = PRODUCT_RELATED_PRODUCT_CATEGORY ( 'part', '', ( #197 ) ) ;
#182 = DIRECTION ( 'NONE',  ( -0.0000000000000000000, -0.0000000000000000000, -1.000000000000000000 ) ) ;
#183 =( NAMED_UNIT ( * ) PLANE_ANGLE_UNIT ( ) SI_UNIT ( $, .RADIAN. ) );
#184 = EDGE_LOOP ( 'NONE', ( #57, #133, #93, #36 ) ) ;
#185 = APPLICATION_PROTOCOL_DEFINITION ( 'draft international standard', 'automotive_design', 1998, #17 ) ;
#186 = AXIS2_PLACEMENT_3D ( 'NONE', #200, #29, #95 ) ;
#187 = ORIENTED_EDGE ( 'NONE', *, *, #131, .F. ) ;
#188 = LINE ( 'NONE', #167, #146 ) ;
#189 = ORIENTED_EDGE ( 'NONE', *, *, #37, .T. ) ;
#190 = PRODUCT_DEFINITION_CONTEXT ( 'detailed design', #2, 'design' ) ;
#191 = FILL_AREA_STYLE_COLOUR ( '', #204 ) ;
#192 = DIRECTION ( 'NONE',  ( -1.000000000000000000, 0.0000000000000000000, 0.0000000000000000000 ) ) ;
#193 = CARTESIAN_POINT ( 'NONE',  ( 0.0000000000000000000, 0.0000000000000000000, 36.00000000000000000 ) ) ;
#194 = DIRECTION ( 'NONE',  ( -0.0000000000000000000, -0.0000000000000000000, -1.000000000000000000 ) ) ;
#195 = VECTOR ( 'NONE', #1, 1000.000000000000000 ) ;
#196 = EDGE_LOOP ( 'NONE', ( #174, #171, #187, #132 ) ) ;
#197 = PRODUCT ( 'ROF2005-moyeux roue folle', 'ROF2005-moyeux roue folle', '', ( #97 ) ) ;
#198 = ADVANCED_FACE ( 'NONE', ( #104 ), #177, .T. ) ;
#199 = CARTESIAN_POINT ( 'NONE',  ( -9.899999999999998600, 0.0000000000000000000, 36.00000000000000000 ) ) ;
#200 = CARTESIAN_POINT ( 'NONE',  ( 0.0000000000000000000, 0.0000000000000000000, 0.0000000000000000000 ) ) ;
#201 = EDGE_CURVE ( 'NONE', #124, #30, #188, .T. ) ;
#202 = VECTOR ( 'NONE', #14, 1000.000000000000000 ) ;
#203 = ADVANCED_FACE ( 'NONE', ( #114, #71 ), #136, .T. ) ;
#204 = COLOUR_RGB ( '',0.7921568627450980000, 0.8196078431372548800, 0.9333333333333333500 ) ;
#205 = UNCERTAINTY_MEASURE_WITH_UNIT (LENGTH_MEASURE( 1.000000000000000100E-005 ), #81, 'distance_accuracy_value', 'NONE');
#206 = CIRCLE ( 'NONE', #176, 5.000000000000000000 ) ;
#207 = STYLED_ITEM ( 'NONE', ( #50 ), #52 ) ;
#208 = CYLINDRICAL_SURFACE ( 'NONE', #100, 5.000000000000000000 ) ;
#209 = FILL_AREA_STYLE ('',( #191 ) ) ;
#210 = SURFACE_SIDE_STYLE ('',( #159 ) ) ;
#211 = CIRCLE ( 'NONE', #186, 5.000000000000000000 ) ;
#212 = ORIENTED_EDGE ( 'NONE', *, *, #47, .F. ) ;
#213 = MECHANICAL_DESIGN_GEOMETRIC_PRESENTATION_REPRESENTATION (  '', ( #207 ), #7 ) ;
#214 = DIRECTION ( 'NONE',  ( -1.000000000000000000, 0.0000000000000000000, 0.0000000000000000000 ) ) ;
ENDSEC;
END-ISO-10303-21;
