ISO-10303-21;
HEADER;
FILE_DESCRIPTION (( 'STEP AP214' ),
    '1' );
FILE_NAME ('ALTIV2_POC_E_003.STEP',
    '2020-11-20T11:04:03',
    ( '' ),
    ( '' ),
    'SwSTEP 2.0',
    'SolidWorks 2020',
    '' );
FILE_SCHEMA (( 'AUTOMOTIVE_DESIGN' ));
ENDSEC;

DATA;
#1 = DIRECTION ( 'NONE',  ( 0.000000000000000000, 1.000000000000000000, 0.000000000000000000 ) ) ;
#2 = MANIFOLD_SOLID_BREP ( 'Révolution1', #261 ) ;
#3 = DIRECTION ( 'NONE',  ( 0.000000000000000000, 0.000000000000000000, -1.000000000000000000 ) ) ;
#4 = VERTEX_POINT ( 'NONE', #127 ) ;
#5 = VERTEX_POINT ( 'NONE', #36 ) ;
#6 = CARTESIAN_POINT ( 'NONE',  ( 0.000000000000000000, 5.999999999999999112, 0.000000000000000000 ) ) ;
#7 = ADVANCED_FACE ( 'NONE', ( #176 ), #48, .F. ) ;
#8 = VERTEX_POINT ( 'NONE', #128 ) ;
#9 = VERTEX_POINT ( 'NONE', #286 ) ;
#10 = FILL_AREA_STYLE_COLOUR ( '', #277 ) ;
#11 = EDGE_CURVE ( 'NONE', #119, #5, #230, .T. ) ;
#12 = FILL_AREA_STYLE_COLOUR ( '', #38 ) ;
#13 = ORIENTED_EDGE ( 'NONE', *, *, #11, .F. ) ;
#14 = VECTOR ( 'NONE', #287, 1000.000000000000000 ) ;
#15 = AXIS2_PLACEMENT_3D ( 'NONE', #192, #32, #49 ) ;
#16 = CARTESIAN_POINT ( 'NONE',  ( 0.000000000000000000, 0.000000000000000000, 0.000000000000000000 ) ) ;
#17 = CARTESIAN_POINT ( 'NONE',  ( 2.510525938252074481E-15, 0.000000000000000000, 20.50000000000000000 ) ) ;
#18 = PRODUCT_RELATED_PRODUCT_CATEGORY ( 'part', '', ( #108 ) ) ;
#19 = FACE_OUTER_BOUND ( 'NONE', #170, .T. ) ;
#20 = APPLICATION_CONTEXT ( 'automotive_design' ) ;
#21 = CARTESIAN_POINT ( 'NONE',  ( 0.000000000000000000, 5.999999999999999112, 0.000000000000000000 ) ) ;
#22 = CARTESIAN_POINT ( 'NONE',  ( 0.000000000000000000, 5.999999999999999112, -15.00000000000000000 ) ) ;
#23 = DIRECTION ( 'NONE',  ( -0.000000000000000000, -1.000000000000000000, -0.000000000000000000 ) ) ;
#24 = ADVANCED_FACE ( 'NONE', ( #80 ), #270, .T. ) ;
#25 = PLANE ( 'NONE',  #294 ) ;
#26 = APPLICATION_PROTOCOL_DEFINITION ( 'draft international standard', 'automotive_design', 1998, #44 ) ;
#27 = AXIS2_PLACEMENT_3D ( 'NONE', #116, #185, #293 ) ;
#28 = AXIS2_PLACEMENT_3D ( 'NONE', #42, #83, #289 ) ;
#29 = VERTEX_POINT ( 'NONE', #129 ) ;
#30 = ADVANCED_FACE ( 'NONE', ( #57, #55 ), #246, .F. ) ;
#31 = EDGE_LOOP ( 'NONE', ( #70, #96, #52, #142 ) ) ;
#32 = DIRECTION ( 'NONE',  ( -0.000000000000000000, -1.000000000000000000, -0.000000000000000000 ) ) ;
#33 = AXIS2_PLACEMENT_3D ( 'NONE', #183, #92, #86 ) ;
#34 = PRESENTATION_STYLE_ASSIGNMENT (( #241 ) ) ;
#35 = SURFACE_SIDE_STYLE ('',( #264 ) ) ;
#36 = CARTESIAN_POINT ( 'NONE',  ( 0.000000000000000000, 0.000000000000000000, -15.00000000000000000 ) ) ;
#37 = AXIS2_PLACEMENT_3D ( 'NONE', #59, #245, #197 ) ;
#38 = COLOUR_RGB ( '',0.000000000000000000, 1.000000000000000000, 0.000000000000000000 ) ;
#39 = CARTESIAN_POINT ( 'NONE',  ( 0.000000000000000000, 5.999999999999999112, 0.000000000000000000 ) ) ;
#40 = PRODUCT_CONTEXT ( 'NONE', #20, 'mechanical' ) ;
#41 =( NAMED_UNIT ( * ) PLANE_ANGLE_UNIT ( ) SI_UNIT ( $, .RADIAN. ) );
#42 = CARTESIAN_POINT ( 'NONE',  ( 0.000000000000000000, 5.999999999999999112, 0.000000000000000000 ) ) ;
#43 = FACE_OUTER_BOUND ( 'NONE', #91, .T. ) ;
#44 = APPLICATION_CONTEXT ( 'automotive_design' ) ;
#45 = EDGE_LOOP ( 'NONE', ( #94, #64 ) ) ;
#46 = EDGE_CURVE ( 'NONE', #8, #67, #155, .T. ) ;
#47 = ORIENTED_EDGE ( 'NONE', *, *, #166, .T. ) ;
#48 = CYLINDRICAL_SURFACE ( 'NONE', #217, 12.00000000000000000 ) ;
#49 = DIRECTION ( 'NONE',  ( 0.000000000000000000, 0.000000000000000000, -1.000000000000000000 ) ) ;
#50 = ADVANCED_FACE ( 'NONE', ( #19 ), #174, .T. ) ;
#51 = ORIENTED_EDGE ( 'NONE', *, *, #162, .T. ) ;
#52 = ORIENTED_EDGE ( 'NONE', *, *, #214, .T. ) ;
#53 = CYLINDRICAL_SURFACE ( 'NONE', #15, 12.00000000000000000 ) ;
#54 = CARTESIAN_POINT ( 'NONE',  ( 0.000000000000000000, 0.000000000000000000, 0.000000000000000000 ) ) ;
#55 = FACE_OUTER_BOUND ( 'NONE', #45, .T. ) ;
#56 = EDGE_CURVE ( 'NONE', #119, #29, #113, .T. ) ;
#57 = FACE_BOUND ( 'NONE', #115, .T. ) ;
#58 = DIRECTION ( 'NONE',  ( 0.000000000000000000, 0.000000000000000000, -1.000000000000000000 ) ) ;
#59 = CARTESIAN_POINT ( 'NONE',  ( 0.000000000000000000, 0.000000000000000000, 0.000000000000000000 ) ) ;
#60 = DIRECTION ( 'NONE',  ( 0.000000000000000000, 0.000000000000000000, -1.000000000000000000 ) ) ;
#61 = EDGE_CURVE ( 'NONE', #8, #215, #120, .T. ) ;
#62 = VECTOR ( 'NONE', #23, 1000.000000000000000 ) ;
#63 = AXIS2_PLACEMENT_3D ( 'NONE', #156, #106, #205 ) ;
#64 = ORIENTED_EDGE ( 'NONE', *, *, #191, .T. ) ;
#65 = EDGE_CURVE ( 'NONE', #29, #109, #233, .T. ) ;
#66 = EDGE_LOOP ( 'NONE', ( #139, #117 ) ) ;
#67 = VERTEX_POINT ( 'NONE', #173 ) ;
#68 = VERTEX_POINT ( 'NONE', #104 ) ;
#69 = DIRECTION ( 'NONE',  ( 0.000000000000000000, 0.000000000000000000, -1.000000000000000000 ) ) ;
#70 = ORIENTED_EDGE ( 'NONE', *, *, #292, .F. ) ;
#71 = EDGE_LOOP ( 'NONE', ( #89, #47 ) ) ;
#72 = DIRECTION ( 'NONE',  ( -0.000000000000000000, -1.000000000000000000, -0.000000000000000000 ) ) ;
#73 = VECTOR ( 'NONE', #99, 1000.000000000000000 ) ;
#74 = VECTOR ( 'NONE', #188, 1000.000000000000000 ) ;
#75 = ADVANCED_BREP_SHAPE_REPRESENTATION ( 'ALTIV2_POC_E_003', ( #2, #137 ), #262 ) ;
#76 = VERTEX_POINT ( 'NONE', #231 ) ;
#77 = CARTESIAN_POINT ( 'NONE',  ( -20.50000000000000000, 5.999999999999999112, 0.000000000000000000 ) ) ;
#78 = AXIS2_PLACEMENT_3D ( 'NONE', #77, #101, #243 ) ;
#79 =( LENGTH_UNIT ( ) NAMED_UNIT ( * ) SI_UNIT ( .MILLI., .METRE. ) );
#80 = FACE_OUTER_BOUND ( 'NONE', #259, .T. ) ;
#81 = CARTESIAN_POINT ( 'NONE',  ( 0.000000000000000000, 0.000000000000000000, -20.50000000000000000 ) ) ;
#82 = SHAPE_DEFINITION_REPRESENTATION ( #234, #75 ) ;
#83 = DIRECTION ( 'NONE',  ( -0.000000000000000000, -1.000000000000000000, -0.000000000000000000 ) ) ;
#84 = AXIS2_PLACEMENT_3D ( 'NONE', #118, #112, #90 ) ;
#85 = CIRCLE ( 'NONE', #273, 20.50000000000000000 ) ;
#86 = DIRECTION ( 'NONE',  ( 0.000000000000000000, 0.000000000000000000, -1.000000000000000000 ) ) ;
#87 = DIRECTION ( 'NONE',  ( 0.000000000000000000, 0.000000000000000000, -1.000000000000000000 ) ) ;
#88 = PRODUCT_DEFINITION ( 'UNKNOWN', '', #210, #189 ) ;
#89 = ORIENTED_EDGE ( 'NONE', *, *, #141, .T. ) ;
#90 = DIRECTION ( 'NONE',  ( 0.000000000000000000, 0.000000000000000000, -1.000000000000000000 ) ) ;
#91 = EDGE_LOOP ( 'NONE', ( #190, #140, #216, #256 ) ) ;
#92 = DIRECTION ( 'NONE',  ( -0.000000000000000000, -1.000000000000000000, -0.000000000000000000 ) ) ;
#93 = ORIENTED_EDGE ( 'NONE', *, *, #56, .T. ) ;
#94 = ORIENTED_EDGE ( 'NONE', *, *, #178, .T. ) ;
#95 = LINE ( 'NONE', #17, #74 ) ;
#96 = ORIENTED_EDGE ( 'NONE', *, *, #110, .T. ) ;
#97 = MECHANICAL_DESIGN_GEOMETRIC_PRESENTATION_REPRESENTATION (  '', ( #130 ), #160 ) ;
#98 =( GEOMETRIC_REPRESENTATION_CONTEXT ( 3 ) GLOBAL_UNCERTAINTY_ASSIGNED_CONTEXT ( ( #144 ) ) GLOBAL_UNIT_ASSIGNED_CONTEXT ( ( #171, #247, #175 ) ) REPRESENTATION_CONTEXT ( 'NONE', 'WORKASPACE' ) );
#99 = DIRECTION ( 'NONE',  ( -0.000000000000000000, -1.000000000000000000, -0.000000000000000000 ) ) ;
#100 = DIRECTION ( 'NONE',  ( 0.000000000000000000, 0.000000000000000000, -1.000000000000000000 ) ) ;
#101 = DIRECTION ( 'NONE',  ( 0.000000000000000000, 1.000000000000000000, 0.000000000000000000 ) ) ;
#102 = CARTESIAN_POINT ( 'NONE',  ( 0.000000000000000000, 0.000000000000000000, 0.000000000000000000 ) ) ;
#103 = CIRCLE ( 'NONE', #131, 12.00000000000000000 ) ;
#104 = CARTESIAN_POINT ( 'NONE',  ( 2.510525938252074481E-15, 5.999999999999999112, 20.50000000000000000 ) ) ;
#105 = DIRECTION ( 'NONE',  ( 0.000000000000000000, 0.000000000000000000, 1.000000000000000000 ) ) ;
#106 = DIRECTION ( 'NONE',  ( -0.000000000000000000, -1.000000000000000000, -0.000000000000000000 ) ) ;
#107 = CYLINDRICAL_SURFACE ( 'NONE', #84, 15.00000000000000000 ) ;
#108 = PRODUCT ( 'ALTIV2_POC_E_003', 'ALTIV2_POC_E_003', '', ( #40 ) ) ;
#109 = VERTEX_POINT ( 'NONE', #203 ) ;
#110 = EDGE_CURVE ( 'NONE', #215, #9, #147, .T. ) ;
#111 = ORIENTED_EDGE ( 'NONE', *, *, #56, .F. ) ;
#112 = DIRECTION ( 'NONE',  ( -0.000000000000000000, -1.000000000000000000, -0.000000000000000000 ) ) ;
#113 = CIRCLE ( 'NONE', #200, 15.00000000000000000 ) ;
#114 = CIRCLE ( 'NONE', #201, 20.50000000000000000 ) ;
#115 = EDGE_LOOP ( 'NONE', ( #111, #223 ) ) ;
#116 = CARTESIAN_POINT ( 'NONE',  ( 0.000000000000000000, 0.000000000000000000, 0.000000000000000000 ) ) ;
#117 = ORIENTED_EDGE ( 'NONE', *, *, #292, .T. ) ;
#118 = CARTESIAN_POINT ( 'NONE',  ( 0.000000000000000000, 0.000000000000000000, 0.000000000000000000 ) ) ;
#119 = VERTEX_POINT ( 'NONE', #22 ) ;
#120 = CIRCLE ( 'NONE', #136, 12.00000000000000178 ) ;
#121 = CARTESIAN_POINT ( 'NONE',  ( 0.000000000000000000, 8.000000000000000000, 0.000000000000000000 ) ) ;
#122 = ORIENTED_EDGE ( 'NONE', *, *, #61, .F. ) ;
#123 = EDGE_CURVE ( 'NONE', #76, #219, #290, .T. ) ;
#124 = DIRECTION ( 'NONE',  ( 0.000000000000000000, 0.000000000000000000, -1.000000000000000000 ) ) ;
#125 = VECTOR ( 'NONE', #250, 1000.000000000000000 ) ;
#126 = AXIS2_PLACEMENT_3D ( 'NONE', #121, #220, #260 ) ;
#127 = CARTESIAN_POINT ( 'NONE',  ( 2.510525938252074481E-15, 8.000000000000000000, 20.50000000000000000 ) ) ;
#128 = CARTESIAN_POINT ( 'NONE',  ( 0.000000000000000000, 8.000000000000000000, -12.00000000000000178 ) ) ;
#129 = CARTESIAN_POINT ( 'NONE',  ( 1.836970198721029589E-15, 5.999999999999999112, 15.00000000000000000 ) ) ;
#130 = STYLED_ITEM ( 'NONE', ( #34 ), #2 ) ;
#131 = AXIS2_PLACEMENT_3D ( 'NONE', #54, #72, #100 ) ;
#132 = DIRECTION ( 'NONE',  ( 0.000000000000000000, 0.000000000000000000, -1.000000000000000000 ) ) ;
#133 = ADVANCED_FACE ( 'NONE', ( #43 ), #107, .T. ) ;
#134 = PRESENTATION_LAYER_ASSIGNMENT (  '', '', ( #211 ) ) ;
#135 = CIRCLE ( 'NONE', #63, 12.00000000000000000 ) ;
#136 = AXIS2_PLACEMENT_3D ( 'NONE', #152, #172, #229 ) ;
#137 = AXIS2_PLACEMENT_3D ( 'NONE', #204, #105, #198 ) ;
#138 = AXIS2_PLACEMENT_3D ( 'NONE', #6, #184, #69 ) ;
#139 = ORIENTED_EDGE ( 'NONE', *, *, #61, .T. ) ;
#140 = ORIENTED_EDGE ( 'NONE', *, *, #218, .T. ) ;
#141 = EDGE_CURVE ( 'NONE', #5, #109, #253, .T. ) ;
#142 = ORIENTED_EDGE ( 'NONE', *, *, #46, .F. ) ;
#143 = FACE_OUTER_BOUND ( 'NONE', #278, .T. ) ;
#144 = UNCERTAINTY_MEASURE_WITH_UNIT (LENGTH_MEASURE( 1.000000000000000082E-05 ), #171, 'distance_accuracy_value', 'NONE');
#145 = ORIENTED_EDGE ( 'NONE', *, *, #65, .T. ) ;
#146 = SURFACE_SIDE_STYLE ('',( #238 ) ) ;
#147 = LINE ( 'NONE', #199, #14 ) ;
#148 = DIRECTION ( 'NONE',  ( 0.000000000000000000, -1.000000000000000000, -0.000000000000000000 ) ) ;
#149 = AXIS2_PLACEMENT_3D ( 'NONE', #102, #269, #58 ) ;
#150 = ADVANCED_FACE ( 'NONE', ( #206 ), #276, .T. ) ;
#151 = CIRCLE ( 'NONE', #28, 20.50000000000000000 ) ;
#152 = CARTESIAN_POINT ( 'NONE',  ( 0.000000000000000000, 8.000000000000000000, 0.000000000000000000 ) ) ;
#153 = DIRECTION ( 'NONE',  ( -0.000000000000000000, -1.000000000000000000, -0.000000000000000000 ) ) ;
#154 = DIRECTION ( 'NONE',  ( -0.000000000000000000, -1.000000000000000000, -0.000000000000000000 ) ) ;
#155 = LINE ( 'NONE', #285, #125 ) ;
#156 = CARTESIAN_POINT ( 'NONE',  ( 0.000000000000000000, 0.000000000000000000, 0.000000000000000000 ) ) ;
#157 = DIRECTION ( 'NONE',  ( -0.000000000000000000, -1.000000000000000000, -0.000000000000000000 ) ) ;
#158 = ORIENTED_EDGE ( 'NONE', *, *, #123, .T. ) ;
#159 = ORIENTED_EDGE ( 'NONE', *, *, #214, .F. ) ;
#160 =( GEOMETRIC_REPRESENTATION_CONTEXT ( 3 ) GLOBAL_UNCERTAINTY_ASSIGNED_CONTEXT ( ( #258 ) ) GLOBAL_UNIT_ASSIGNED_CONTEXT ( ( #79, #41, #225 ) ) REPRESENTATION_CONTEXT ( 'NONE', 'WORKASPACE' ) );
#161 = EDGE_LOOP ( 'NONE', ( #265, #159 ) ) ;
#162 = EDGE_CURVE ( 'NONE', #76, #4, #244, .T. ) ;
#163 = ORIENTED_EDGE ( 'NONE', *, *, #237, .T. ) ;
#164 = DIRECTION ( 'NONE',  ( 0.000000000000000000, 0.000000000000000000, -1.000000000000000000 ) ) ;
#165 = ORIENTED_EDGE ( 'NONE', *, *, #162, .F. ) ;
#166 = EDGE_CURVE ( 'NONE', #109, #5, #213, .T. ) ;
#167 = PRESENTATION_LAYER_ASSIGNMENT (  '', '', ( #130 ) ) ;
#168 = ORIENTED_EDGE ( 'NONE', *, *, #46, .T. ) ;
#169 = FILL_AREA_STYLE ('',( #12 ) ) ;
#170 = EDGE_LOOP ( 'NONE', ( #51, #235, #263, #239 ) ) ;
#171 =( LENGTH_UNIT ( ) NAMED_UNIT ( * ) SI_UNIT ( .MILLI., .METRE. ) );
#172 = DIRECTION ( 'NONE',  ( -0.000000000000000000, -1.000000000000000000, -0.000000000000000000 ) ) ;
#173 = CARTESIAN_POINT ( 'NONE',  ( 0.000000000000000000, 0.000000000000000000, -12.00000000000000000 ) ) ;
#174 = CYLINDRICAL_SURFACE ( 'NONE', #149, 20.50000000000000000 ) ;
#175 =( NAMED_UNIT ( * ) SI_UNIT ( $, .STERADIAN. ) SOLID_ANGLE_UNIT ( ) );
#176 = FACE_OUTER_BOUND ( 'NONE', #31, .T. ) ;
#177 = FACE_BOUND ( 'NONE', #161, .T. ) ;
#178 = EDGE_CURVE ( 'NONE', #219, #68, #85, .T. ) ;
#179 = DIRECTION ( 'NONE',  ( -0.000000000000000000, -1.000000000000000000, -0.000000000000000000 ) ) ;
#180 = VECTOR ( 'NONE', #179, 1000.000000000000000 ) ;
#181 = MECHANICAL_DESIGN_GEOMETRIC_PRESENTATION_REPRESENTATION (  '', ( #211 ), #98 ) ;
#182 = CARTESIAN_POINT ( 'NONE',  ( 0.000000000000000000, 0.000000000000000000, 0.000000000000000000 ) ) ;
#183 = CARTESIAN_POINT ( 'NONE',  ( 0.000000000000000000, 8.000000000000000000, 0.000000000000000000 ) ) ;
#184 = DIRECTION ( 'NONE',  ( -0.000000000000000000, -1.000000000000000000, -0.000000000000000000 ) ) ;
#185 = DIRECTION ( 'NONE',  ( -0.000000000000000000, -1.000000000000000000, -0.000000000000000000 ) ) ;
#186 = AXIS2_PLACEMENT_3D ( 'NONE', #257, #148, #164 ) ;
#187 = ORIENTED_EDGE ( 'NONE', *, *, #141, .F. ) ;
#188 = DIRECTION ( 'NONE',  ( -0.000000000000000000, -1.000000000000000000, -0.000000000000000000 ) ) ;
#189 = PRODUCT_DEFINITION_CONTEXT ( 'detailed design', #44, 'design' ) ;
#190 = ORIENTED_EDGE ( 'NONE', *, *, #65, .F. ) ;
#191 = EDGE_CURVE ( 'NONE', #68, #219, #151, .T. ) ;
#192 = CARTESIAN_POINT ( 'NONE',  ( 0.000000000000000000, 0.000000000000000000, 0.000000000000000000 ) ) ;
#193 = FILL_AREA_STYLE ('',( #10 ) ) ;
#194 = FACE_BOUND ( 'NONE', #66, .T. ) ;
#195 = PLANE ( 'NONE',  #186 ) ;
#196 = EDGE_CURVE ( 'NONE', #4, #76, #114, .T. ) ;
#197 = DIRECTION ( 'NONE',  ( 0.000000000000000000, 0.000000000000000000, -1.000000000000000000 ) ) ;
#198 = DIRECTION ( 'NONE',  ( 1.000000000000000000, 0.000000000000000000, 0.000000000000000000 ) ) ;
#199 = CARTESIAN_POINT ( 'NONE',  ( 1.469576158976823947E-15, 0.000000000000000000, 12.00000000000000000 ) ) ;
#200 = AXIS2_PLACEMENT_3D ( 'NONE', #39, #154, #132 ) ;
#201 = AXIS2_PLACEMENT_3D ( 'NONE', #288, #209, #87 ) ;
#202 = DIRECTION ( 'NONE',  ( -0.000000000000000000, -1.000000000000000000, -0.000000000000000000 ) ) ;
#203 = CARTESIAN_POINT ( 'NONE',  ( 1.836970198721029589E-15, 0.000000000000000000, 15.00000000000000000 ) ) ;
#204 = CARTESIAN_POINT ( 'NONE',  ( 0.000000000000000000, 0.000000000000000000, 0.000000000000000000 ) ) ;
#205 = DIRECTION ( 'NONE',  ( 0.000000000000000000, 0.000000000000000000, -1.000000000000000000 ) ) ;
#206 = FACE_OUTER_BOUND ( 'NONE', #221, .T. ) ;
#207 = ORIENTED_EDGE ( 'NONE', *, *, #110, .F. ) ;
#208 = AXIS2_PLACEMENT_3D ( 'NONE', #272, #251, #3 ) ;
#209 = DIRECTION ( 'NONE',  ( -0.000000000000000000, -1.000000000000000000, -0.000000000000000000 ) ) ;
#210 = PRODUCT_DEFINITION_FORMATION_WITH_SPECIFIED_SOURCE ( 'ANY', '', #108, .NOT_KNOWN. ) ;
#211 = STYLED_ITEM ( 'NONE', ( #224 ), #75 ) ;
#212 = ADVANCED_FACE ( 'NONE', ( #177, #275 ), #25, .F. ) ;
#213 = CIRCLE ( 'NONE', #226, 15.00000000000000000 ) ;
#214 = EDGE_CURVE ( 'NONE', #9, #67, #135, .T. ) ;
#215 = VERTEX_POINT ( 'NONE', #274 ) ;
#216 = ORIENTED_EDGE ( 'NONE', *, *, #11, .T. ) ;
#217 = AXIS2_PLACEMENT_3D ( 'NONE', #16, #202, #124 ) ;
#218 = EDGE_CURVE ( 'NONE', #29, #119, #254, .T. ) ;
#219 = VERTEX_POINT ( 'NONE', #227 ) ;
#220 = DIRECTION ( 'NONE',  ( -0.000000000000000000, -1.000000000000000000, -0.000000000000000000 ) ) ;
#221 = EDGE_LOOP ( 'NONE', ( #280, #255, #158, #236 ) ) ;
#222 = APPLICATION_PROTOCOL_DEFINITION ( 'draft international standard', 'automotive_design', 1998, #20 ) ;
#223 = ORIENTED_EDGE ( 'NONE', *, *, #218, .F. ) ;
#224 = PRESENTATION_STYLE_ASSIGNMENT (( #267 ) ) ;
#225 =( NAMED_UNIT ( * ) SI_UNIT ( $, .STERADIAN. ) SOLID_ANGLE_UNIT ( ) );
#226 = AXIS2_PLACEMENT_3D ( 'NONE', #182, #157, #60 ) ;
#227 = CARTESIAN_POINT ( 'NONE',  ( 0.000000000000000000, 5.999999999999999112, -20.50000000000000000 ) ) ;
#228 = EDGE_CURVE ( 'NONE', #4, #68, #95, .T. ) ;
#229 = DIRECTION ( 'NONE',  ( 0.000000000000000000, 0.000000000000000000, -1.000000000000000000 ) ) ;
#230 = LINE ( 'NONE', #268, #73 ) ;
#231 = CARTESIAN_POINT ( 'NONE',  ( 0.000000000000000000, 8.000000000000000000, -20.50000000000000000 ) ) ;
#232 = CARTESIAN_POINT ( 'NONE',  ( -15.00000000000000000, 0.000000000000000000, 0.000000000000000000 ) ) ;
#233 = LINE ( 'NONE', #249, #62 ) ;
#234 = PRODUCT_DEFINITION_SHAPE ( 'NONE', 'NONE',  #88 ) ;
#235 = ORIENTED_EDGE ( 'NONE', *, *, #228, .T. ) ;
#236 = ORIENTED_EDGE ( 'NONE', *, *, #191, .F. ) ;
#237 = EDGE_CURVE ( 'NONE', #67, #9, #103, .T. ) ;
#238 = SURFACE_STYLE_FILL_AREA ( #193 ) ;
#239 = ORIENTED_EDGE ( 'NONE', *, *, #123, .F. ) ;
#240 = FACE_OUTER_BOUND ( 'NONE', #282, .T. ) ;
#241 = SURFACE_STYLE_USAGE ( .BOTH. , #146 ) ;
#242 =( NAMED_UNIT ( * ) PLANE_ANGLE_UNIT ( ) SI_UNIT ( $, .RADIAN. ) );
#243 = DIRECTION ( 'NONE',  ( 0.000000000000000000, -0.000000000000000000, 1.000000000000000000 ) ) ;
#244 = CIRCLE ( 'NONE', #33, 20.50000000000000000 ) ;
#245 = DIRECTION ( 'NONE',  ( -0.000000000000000000, -1.000000000000000000, -0.000000000000000000 ) ) ;
#246 = PLANE ( 'NONE',  #78 ) ;
#247 =( NAMED_UNIT ( * ) PLANE_ANGLE_UNIT ( ) SI_UNIT ( $, .RADIAN. ) );
#248 = ADVANCED_FACE ( 'NONE', ( #143, #194 ), #195, .F. ) ;
#249 = CARTESIAN_POINT ( 'NONE',  ( 1.836970198721029589E-15, 0.000000000000000000, 15.00000000000000000 ) ) ;
#250 = DIRECTION ( 'NONE',  ( -0.000000000000000000, -1.000000000000000000, -0.000000000000000000 ) ) ;
#251 = DIRECTION ( 'NONE',  ( -0.000000000000000000, -1.000000000000000000, -0.000000000000000000 ) ) ;
#252 = ORIENTED_EDGE ( 'NONE', *, *, #196, .F. ) ;
#253 = CIRCLE ( 'NONE', #208, 15.00000000000000000 ) ;
#254 = CIRCLE ( 'NONE', #138, 15.00000000000000000 ) ;
#255 = ORIENTED_EDGE ( 'NONE', *, *, #196, .T. ) ;
#256 = ORIENTED_EDGE ( 'NONE', *, *, #166, .F. ) ;
#257 = CARTESIAN_POINT ( 'NONE',  ( -12.00000000000000178, 8.000000000000000000, 0.000000000000000000 ) ) ;
#258 = UNCERTAINTY_MEASURE_WITH_UNIT (LENGTH_MEASURE( 1.000000000000000082E-05 ), #79, 'distance_accuracy_value', 'NONE');
#259 = EDGE_LOOP ( 'NONE', ( #93, #145, #187, #13 ) ) ;
#260 = DIRECTION ( 'NONE',  ( 0.000000000000000000, 0.000000000000000000, -1.000000000000000000 ) ) ;
#261 = CLOSED_SHELL ( 'NONE', ( #24, #50, #7, #212, #283, #248, #150, #30, #133 ) ) ;
#262 =( GEOMETRIC_REPRESENTATION_CONTEXT ( 3 ) GLOBAL_UNCERTAINTY_ASSIGNED_CONTEXT ( ( #279 ) ) GLOBAL_UNIT_ASSIGNED_CONTEXT ( ( #266, #242, #281 ) ) REPRESENTATION_CONTEXT ( 'NONE', 'WORKASPACE' ) );
#263 = ORIENTED_EDGE ( 'NONE', *, *, #178, .F. ) ;
#264 = SURFACE_STYLE_FILL_AREA ( #169 ) ;
#265 = ORIENTED_EDGE ( 'NONE', *, *, #237, .F. ) ;
#266 =( LENGTH_UNIT ( ) NAMED_UNIT ( * ) SI_UNIT ( .MILLI., .METRE. ) );
#267 = SURFACE_STYLE_USAGE ( .BOTH. , #35 ) ;
#268 = CARTESIAN_POINT ( 'NONE',  ( 0.000000000000000000, 0.000000000000000000, -15.00000000000000000 ) ) ;
#269 = DIRECTION ( 'NONE',  ( -0.000000000000000000, -1.000000000000000000, -0.000000000000000000 ) ) ;
#270 = CYLINDRICAL_SURFACE ( 'NONE', #37, 15.00000000000000000 ) ;
#271 = DIRECTION ( 'NONE',  ( 0.000000000000000000, -0.000000000000000000, 1.000000000000000000 ) ) ;
#272 = CARTESIAN_POINT ( 'NONE',  ( 0.000000000000000000, 0.000000000000000000, 0.000000000000000000 ) ) ;
#273 = AXIS2_PLACEMENT_3D ( 'NONE', #21, #153, #291 ) ;
#274 = CARTESIAN_POINT ( 'NONE',  ( 1.469576158976824342E-15, 8.000000000000000000, 12.00000000000000355 ) ) ;
#275 = FACE_OUTER_BOUND ( 'NONE', #71, .T. ) ;
#276 = CYLINDRICAL_SURFACE ( 'NONE', #27, 20.50000000000000000 ) ;
#277 = COLOUR_RGB ( '',0.000000000000000000, 1.000000000000000000, 0.000000000000000000 ) ;
#278 = EDGE_LOOP ( 'NONE', ( #165, #252 ) ) ;
#279 = UNCERTAINTY_MEASURE_WITH_UNIT (LENGTH_MEASURE( 1.000000000000000082E-05 ), #266, 'distance_accuracy_value', 'NONE');
#280 = ORIENTED_EDGE ( 'NONE', *, *, #228, .F. ) ;
#281 =( NAMED_UNIT ( * ) SI_UNIT ( $, .STERADIAN. ) SOLID_ANGLE_UNIT ( ) );
#282 = EDGE_LOOP ( 'NONE', ( #207, #122, #168, #163 ) ) ;
#283 = ADVANCED_FACE ( 'NONE', ( #240 ), #53, .F. ) ;
#284 = CIRCLE ( 'NONE', #126, 12.00000000000000178 ) ;
#285 = CARTESIAN_POINT ( 'NONE',  ( 0.000000000000000000, 0.000000000000000000, -12.00000000000000000 ) ) ;
#286 = CARTESIAN_POINT ( 'NONE',  ( 1.469576158976823947E-15, 0.000000000000000000, 12.00000000000000000 ) ) ;
#287 = DIRECTION ( 'NONE',  ( -0.000000000000000000, -1.000000000000000000, -0.000000000000000000 ) ) ;
#288 = CARTESIAN_POINT ( 'NONE',  ( 0.000000000000000000, 8.000000000000000000, 0.000000000000000000 ) ) ;
#289 = DIRECTION ( 'NONE',  ( 0.000000000000000000, 0.000000000000000000, -1.000000000000000000 ) ) ;
#290 = LINE ( 'NONE', #81, #180 ) ;
#291 = DIRECTION ( 'NONE',  ( 0.000000000000000000, 0.000000000000000000, -1.000000000000000000 ) ) ;
#292 = EDGE_CURVE ( 'NONE', #215, #8, #284, .T. ) ;
#293 = DIRECTION ( 'NONE',  ( 0.000000000000000000, 0.000000000000000000, -1.000000000000000000 ) ) ;
#294 = AXIS2_PLACEMENT_3D ( 'NONE', #232, #1, #271 ) ;
ENDSEC;
END-ISO-10303-21;
