ISO-10303-21;
HEADER;
/* Generated by software containing ST-Developer
 * from STEP Tools, Inc. (www.steptools.com) 
 */

FILE_DESCRIPTION(
/* description */ (''),
/* implementation_level */ '2;1');

FILE_NAME(
/* name */ 'C:\\Users\\Jean-Michel\\Desktop\\disque_ext.stp',
/* time_stamp */ '2020-12-09T16:34:54+01:00',
/* author */ ('Jean-Michel'),
/* organization */ (''),
/* preprocessor_version */ 'ST-DEVELOPER v18.1',
/* originating_system */ 'Autodesk Inventor 2021',
/* authorisation */ '');

FILE_SCHEMA (('AUTOMOTIVE_DESIGN { 1 0 10303 214 3 1 1 }'));
ENDSEC;

DATA;
#10=MECHANICAL_DESIGN_GEOMETRIC_PRESENTATION_REPRESENTATION('',(#13),#673);
#11=SHAPE_REPRESENTATION_RELATIONSHIP('SRR','None',#680,#12);
#12=ADVANCED_BREP_SHAPE_REPRESENTATION('',(#14),#672);
#13=STYLED_ITEM('',(#689),#14);
#14=MANIFOLD_SOLID_BREP('Solide2',#386);
#15=FACE_BOUND('',#70,.T.);
#16=FACE_BOUND('',#71,.T.);
#17=FACE_BOUND('',#72,.T.);
#18=FACE_BOUND('',#73,.T.);
#19=FACE_BOUND('',#74,.T.);
#20=FACE_BOUND('',#77,.T.);
#21=FACE_BOUND('',#78,.T.);
#22=FACE_BOUND('',#79,.T.);
#23=FACE_BOUND('',#80,.T.);
#24=FACE_BOUND('',#81,.T.);
#25=TOROIDAL_SURFACE('',#426,149.,1.);
#26=TOROIDAL_SURFACE('',#439,149.,1.);
#27=PLANE('',#409);
#28=PLANE('',#410);
#29=PLANE('',#411);
#30=PLANE('',#412);
#31=PLANE('',#416);
#32=PLANE('',#417);
#33=PLANE('',#424);
#34=PLANE('',#425);
#35=PLANE('',#437);
#36=PLANE('',#443);
#37=FACE_OUTER_BOUND('',#55,.T.);
#38=FACE_OUTER_BOUND('',#56,.T.);
#39=FACE_OUTER_BOUND('',#57,.T.);
#40=FACE_OUTER_BOUND('',#58,.T.);
#41=FACE_OUTER_BOUND('',#59,.T.);
#42=FACE_OUTER_BOUND('',#60,.T.);
#43=FACE_OUTER_BOUND('',#61,.T.);
#44=FACE_OUTER_BOUND('',#62,.T.);
#45=FACE_OUTER_BOUND('',#63,.T.);
#46=FACE_OUTER_BOUND('',#64,.T.);
#47=FACE_OUTER_BOUND('',#65,.T.);
#48=FACE_OUTER_BOUND('',#66,.T.);
#49=FACE_OUTER_BOUND('',#67,.T.);
#50=FACE_OUTER_BOUND('',#68,.T.);
#51=FACE_OUTER_BOUND('',#69,.T.);
#52=FACE_OUTER_BOUND('',#75,.T.);
#53=FACE_OUTER_BOUND('',#76,.T.);
#54=FACE_OUTER_BOUND('',#82,.T.);
#55=EDGE_LOOP('',(#256,#257,#258,#259));
#56=EDGE_LOOP('',(#260,#261,#262,#263));
#57=EDGE_LOOP('',(#264,#265,#266,#267));
#58=EDGE_LOOP('',(#268,#269,#270,#271));
#59=EDGE_LOOP('',(#272,#273,#274,#275));
#60=EDGE_LOOP('',(#276,#277,#278,#279));
#61=EDGE_LOOP('',(#280,#281,#282,#283));
#62=EDGE_LOOP('',(#284,#285,#286,#287));
#63=EDGE_LOOP('',(#288,#289,#290,#291));
#64=EDGE_LOOP('',(#292,#293,#294,#295));
#65=EDGE_LOOP('',(#296,#297,#298,#299));
#66=EDGE_LOOP('',(#300,#301,#302,#303));
#67=EDGE_LOOP('',(#304,#305,#306,#307,#308,#309,#310));
#68=EDGE_LOOP('',(#311,#312,#313,#314,#315,#316,#317,#318));
#69=EDGE_LOOP('',(#319,#320));
#70=EDGE_LOOP('',(#321,#322,#323));
#71=EDGE_LOOP('',(#324,#325,#326));
#72=EDGE_LOOP('',(#327,#328,#329));
#73=EDGE_LOOP('',(#330,#331,#332));
#74=EDGE_LOOP('',(#333));
#75=EDGE_LOOP('',(#334,#335,#336,#337,#338,#339,#340));
#76=EDGE_LOOP('',(#341,#342));
#77=EDGE_LOOP('',(#343,#344,#345));
#78=EDGE_LOOP('',(#346,#347,#348));
#79=EDGE_LOOP('',(#349,#350,#351));
#80=EDGE_LOOP('',(#352,#353,#354));
#81=EDGE_LOOP('',(#355,#356));
#82=EDGE_LOOP('',(#357,#358,#359,#360,#361));
#83=LINE('',#567,#113);
#84=LINE('',#570,#114);
#85=LINE('',#573,#115);
#86=LINE('',#575,#116);
#87=LINE('',#576,#117);
#88=LINE('',#578,#118);
#89=LINE('',#579,#119);
#90=LINE('',#583,#120);
#91=LINE('',#585,#121);
#92=LINE('',#587,#122);
#93=LINE('',#588,#123);
#94=LINE('',#591,#124);
#95=LINE('',#593,#125);
#96=LINE('',#594,#126);
#97=LINE('',#601,#127);
#98=LINE('',#603,#128);
#99=LINE('',#605,#129);
#100=LINE('',#606,#130);
#101=LINE('',#609,#131);
#102=LINE('',#611,#132);
#103=LINE('',#612,#133);
#104=LINE('',#621,#134);
#105=LINE('',#624,#135);
#106=LINE('',#627,#136);
#107=LINE('',#629,#137);
#108=LINE('',#630,#138);
#109=LINE('',#632,#139);
#110=LINE('',#633,#140);
#111=LINE('',#653,#141);
#112=LINE('',#669,#142);
#113=VECTOR('',#453,10.);
#114=VECTOR('',#456,10.);
#115=VECTOR('',#459,10.);
#116=VECTOR('',#460,10.);
#117=VECTOR('',#461,10.);
#118=VECTOR('',#464,10.);
#119=VECTOR('',#465,10.);
#120=VECTOR('',#468,10.);
#121=VECTOR('',#469,10.);
#122=VECTOR('',#470,10.);
#123=VECTOR('',#471,10.);
#124=VECTOR('',#474,10.);
#125=VECTOR('',#475,10.);
#126=VECTOR('',#476,10.);
#127=VECTOR('',#485,10.);
#128=VECTOR('',#486,10.);
#129=VECTOR('',#487,10.);
#130=VECTOR('',#488,10.);
#131=VECTOR('',#491,10.);
#132=VECTOR('',#492,10.);
#133=VECTOR('',#493,10.);
#134=VECTOR('',#504,10.);
#135=VECTOR('',#507,10.);
#136=VECTOR('',#510,10.);
#137=VECTOR('',#511,10.);
#138=VECTOR('',#512,10.);
#139=VECTOR('',#515,10.);
#140=VECTOR('',#516,10.);
#141=VECTOR('',#539,150.);
#142=VECTOR('',#560,19.625);
#143=CIRCLE('',#407,115.);
#144=CIRCLE('',#408,115.);
#145=CIRCLE('',#414,115.);
#146=CIRCLE('',#415,115.);
#147=CIRCLE('',#419,115.);
#148=CIRCLE('',#420,115.);
#149=CIRCLE('',#422,115.);
#150=CIRCLE('',#423,115.);
#151=CIRCLE('',#427,150.);
#152=CIRCLE('',#428,1.);
#153=CIRCLE('',#429,149.);
#154=CIRCLE('',#430,149.);
#155=CIRCLE('',#431,150.);
#156=CIRCLE('',#432,150.);
#157=CIRCLE('',#434,150.);
#158=CIRCLE('',#435,150.);
#159=CIRCLE('',#436,150.);
#160=CIRCLE('',#438,19.625);
#161=CIRCLE('',#440,149.);
#162=CIRCLE('',#441,1.);
#163=CIRCLE('',#442,149.);
#164=CIRCLE('',#444,19.625);
#165=CIRCLE('',#445,19.625);
#166=VERTEX_POINT('',#563);
#167=VERTEX_POINT('',#564);
#168=VERTEX_POINT('',#566);
#169=VERTEX_POINT('',#568);
#170=VERTEX_POINT('',#572);
#171=VERTEX_POINT('',#574);
#172=VERTEX_POINT('',#581);
#173=VERTEX_POINT('',#582);
#174=VERTEX_POINT('',#584);
#175=VERTEX_POINT('',#586);
#176=VERTEX_POINT('',#590);
#177=VERTEX_POINT('',#592);
#178=VERTEX_POINT('',#599);
#179=VERTEX_POINT('',#600);
#180=VERTEX_POINT('',#602);
#181=VERTEX_POINT('',#604);
#182=VERTEX_POINT('',#608);
#183=VERTEX_POINT('',#610);
#184=VERTEX_POINT('',#617);
#185=VERTEX_POINT('',#618);
#186=VERTEX_POINT('',#620);
#187=VERTEX_POINT('',#622);
#188=VERTEX_POINT('',#626);
#189=VERTEX_POINT('',#628);
#190=VERTEX_POINT('',#635);
#191=VERTEX_POINT('',#636);
#192=VERTEX_POINT('',#638);
#193=VERTEX_POINT('',#640);
#194=VERTEX_POINT('',#643);
#195=VERTEX_POINT('',#647);
#196=VERTEX_POINT('',#648);
#197=VERTEX_POINT('',#650);
#198=VERTEX_POINT('',#655);
#199=VERTEX_POINT('',#658);
#200=VERTEX_POINT('',#659);
#201=VERTEX_POINT('',#664);
#202=VERTEX_POINT('',#665);
#203=EDGE_CURVE('',#166,#167,#143,.T.);
#204=EDGE_CURVE('',#166,#168,#83,.T.);
#205=EDGE_CURVE('',#169,#168,#144,.T.);
#206=EDGE_CURVE('',#167,#169,#84,.T.);
#207=EDGE_CURVE('',#170,#166,#85,.T.);
#208=EDGE_CURVE('',#170,#171,#86,.T.);
#209=EDGE_CURVE('',#168,#171,#87,.T.);
#210=EDGE_CURVE('',#167,#170,#88,.T.);
#211=EDGE_CURVE('',#171,#169,#89,.T.);
#212=EDGE_CURVE('',#172,#173,#90,.T.);
#213=EDGE_CURVE('',#172,#174,#91,.T.);
#214=EDGE_CURVE('',#175,#174,#92,.T.);
#215=EDGE_CURVE('',#173,#175,#93,.T.);
#216=EDGE_CURVE('',#176,#172,#94,.T.);
#217=EDGE_CURVE('',#176,#177,#95,.T.);
#218=EDGE_CURVE('',#174,#177,#96,.T.);
#219=EDGE_CURVE('',#173,#176,#145,.T.);
#220=EDGE_CURVE('',#177,#175,#146,.T.);
#221=EDGE_CURVE('',#178,#179,#97,.T.);
#222=EDGE_CURVE('',#178,#180,#98,.T.);
#223=EDGE_CURVE('',#181,#180,#99,.T.);
#224=EDGE_CURVE('',#179,#181,#100,.T.);
#225=EDGE_CURVE('',#182,#178,#101,.T.);
#226=EDGE_CURVE('',#182,#183,#102,.T.);
#227=EDGE_CURVE('',#180,#183,#103,.T.);
#228=EDGE_CURVE('',#179,#182,#147,.T.);
#229=EDGE_CURVE('',#183,#181,#148,.T.);
#230=EDGE_CURVE('',#184,#185,#149,.T.);
#231=EDGE_CURVE('',#184,#186,#104,.T.);
#232=EDGE_CURVE('',#187,#186,#150,.T.);
#233=EDGE_CURVE('',#185,#187,#105,.T.);
#234=EDGE_CURVE('',#188,#184,#106,.T.);
#235=EDGE_CURVE('',#188,#189,#107,.T.);
#236=EDGE_CURVE('',#186,#189,#108,.T.);
#237=EDGE_CURVE('',#185,#188,#109,.T.);
#238=EDGE_CURVE('',#189,#187,#110,.T.);
#239=EDGE_CURVE('',#190,#191,#151,.T.);
#240=EDGE_CURVE('',#191,#192,#152,.T.);
#241=EDGE_CURVE('',#192,#193,#153,.T.);
#242=EDGE_CURVE('',#193,#192,#154,.T.);
#243=EDGE_CURVE('',#191,#194,#155,.T.);
#244=EDGE_CURVE('',#194,#190,#156,.T.);
#245=EDGE_CURVE('',#195,#196,#157,.T.);
#246=EDGE_CURVE('',#197,#195,#158,.T.);
#247=EDGE_CURVE('',#196,#197,#159,.T.);
#248=EDGE_CURVE('',#196,#194,#111,.T.);
#249=EDGE_CURVE('',#198,#198,#160,.T.);
#250=EDGE_CURVE('',#199,#200,#161,.T.);
#251=EDGE_CURVE('',#200,#197,#162,.T.);
#252=EDGE_CURVE('',#200,#199,#163,.T.);
#253=EDGE_CURVE('',#201,#202,#164,.T.);
#254=EDGE_CURVE('',#202,#201,#165,.T.);
#255=EDGE_CURVE('',#202,#198,#112,.T.);
#256=ORIENTED_EDGE('',*,*,#203,.F.);
#257=ORIENTED_EDGE('',*,*,#204,.T.);
#258=ORIENTED_EDGE('',*,*,#205,.F.);
#259=ORIENTED_EDGE('',*,*,#206,.F.);
#260=ORIENTED_EDGE('',*,*,#207,.F.);
#261=ORIENTED_EDGE('',*,*,#208,.T.);
#262=ORIENTED_EDGE('',*,*,#209,.F.);
#263=ORIENTED_EDGE('',*,*,#204,.F.);
#264=ORIENTED_EDGE('',*,*,#210,.F.);
#265=ORIENTED_EDGE('',*,*,#206,.T.);
#266=ORIENTED_EDGE('',*,*,#211,.F.);
#267=ORIENTED_EDGE('',*,*,#208,.F.);
#268=ORIENTED_EDGE('',*,*,#212,.F.);
#269=ORIENTED_EDGE('',*,*,#213,.T.);
#270=ORIENTED_EDGE('',*,*,#214,.F.);
#271=ORIENTED_EDGE('',*,*,#215,.F.);
#272=ORIENTED_EDGE('',*,*,#216,.F.);
#273=ORIENTED_EDGE('',*,*,#217,.T.);
#274=ORIENTED_EDGE('',*,*,#218,.F.);
#275=ORIENTED_EDGE('',*,*,#213,.F.);
#276=ORIENTED_EDGE('',*,*,#219,.F.);
#277=ORIENTED_EDGE('',*,*,#215,.T.);
#278=ORIENTED_EDGE('',*,*,#220,.F.);
#279=ORIENTED_EDGE('',*,*,#217,.F.);
#280=ORIENTED_EDGE('',*,*,#221,.F.);
#281=ORIENTED_EDGE('',*,*,#222,.T.);
#282=ORIENTED_EDGE('',*,*,#223,.F.);
#283=ORIENTED_EDGE('',*,*,#224,.F.);
#284=ORIENTED_EDGE('',*,*,#225,.F.);
#285=ORIENTED_EDGE('',*,*,#226,.T.);
#286=ORIENTED_EDGE('',*,*,#227,.F.);
#287=ORIENTED_EDGE('',*,*,#222,.F.);
#288=ORIENTED_EDGE('',*,*,#228,.F.);
#289=ORIENTED_EDGE('',*,*,#224,.T.);
#290=ORIENTED_EDGE('',*,*,#229,.F.);
#291=ORIENTED_EDGE('',*,*,#226,.F.);
#292=ORIENTED_EDGE('',*,*,#230,.F.);
#293=ORIENTED_EDGE('',*,*,#231,.T.);
#294=ORIENTED_EDGE('',*,*,#232,.F.);
#295=ORIENTED_EDGE('',*,*,#233,.F.);
#296=ORIENTED_EDGE('',*,*,#234,.F.);
#297=ORIENTED_EDGE('',*,*,#235,.T.);
#298=ORIENTED_EDGE('',*,*,#236,.F.);
#299=ORIENTED_EDGE('',*,*,#231,.F.);
#300=ORIENTED_EDGE('',*,*,#237,.F.);
#301=ORIENTED_EDGE('',*,*,#233,.T.);
#302=ORIENTED_EDGE('',*,*,#238,.F.);
#303=ORIENTED_EDGE('',*,*,#235,.F.);
#304=ORIENTED_EDGE('',*,*,#239,.T.);
#305=ORIENTED_EDGE('',*,*,#240,.T.);
#306=ORIENTED_EDGE('',*,*,#241,.T.);
#307=ORIENTED_EDGE('',*,*,#242,.T.);
#308=ORIENTED_EDGE('',*,*,#240,.F.);
#309=ORIENTED_EDGE('',*,*,#243,.T.);
#310=ORIENTED_EDGE('',*,*,#244,.T.);
#311=ORIENTED_EDGE('',*,*,#245,.F.);
#312=ORIENTED_EDGE('',*,*,#246,.F.);
#313=ORIENTED_EDGE('',*,*,#247,.F.);
#314=ORIENTED_EDGE('',*,*,#248,.T.);
#315=ORIENTED_EDGE('',*,*,#243,.F.);
#316=ORIENTED_EDGE('',*,*,#239,.F.);
#317=ORIENTED_EDGE('',*,*,#244,.F.);
#318=ORIENTED_EDGE('',*,*,#248,.F.);
#319=ORIENTED_EDGE('',*,*,#242,.F.);
#320=ORIENTED_EDGE('',*,*,#241,.F.);
#321=ORIENTED_EDGE('',*,*,#203,.T.);
#322=ORIENTED_EDGE('',*,*,#210,.T.);
#323=ORIENTED_EDGE('',*,*,#207,.T.);
#324=ORIENTED_EDGE('',*,*,#212,.T.);
#325=ORIENTED_EDGE('',*,*,#219,.T.);
#326=ORIENTED_EDGE('',*,*,#216,.T.);
#327=ORIENTED_EDGE('',*,*,#221,.T.);
#328=ORIENTED_EDGE('',*,*,#228,.T.);
#329=ORIENTED_EDGE('',*,*,#225,.T.);
#330=ORIENTED_EDGE('',*,*,#230,.T.);
#331=ORIENTED_EDGE('',*,*,#237,.T.);
#332=ORIENTED_EDGE('',*,*,#234,.T.);
#333=ORIENTED_EDGE('',*,*,#249,.T.);
#334=ORIENTED_EDGE('',*,*,#250,.T.);
#335=ORIENTED_EDGE('',*,*,#251,.T.);
#336=ORIENTED_EDGE('',*,*,#246,.T.);
#337=ORIENTED_EDGE('',*,*,#245,.T.);
#338=ORIENTED_EDGE('',*,*,#247,.T.);
#339=ORIENTED_EDGE('',*,*,#251,.F.);
#340=ORIENTED_EDGE('',*,*,#252,.T.);
#341=ORIENTED_EDGE('',*,*,#250,.F.);
#342=ORIENTED_EDGE('',*,*,#252,.F.);
#343=ORIENTED_EDGE('',*,*,#205,.T.);
#344=ORIENTED_EDGE('',*,*,#209,.T.);
#345=ORIENTED_EDGE('',*,*,#211,.T.);
#346=ORIENTED_EDGE('',*,*,#214,.T.);
#347=ORIENTED_EDGE('',*,*,#218,.T.);
#348=ORIENTED_EDGE('',*,*,#220,.T.);
#349=ORIENTED_EDGE('',*,*,#223,.T.);
#350=ORIENTED_EDGE('',*,*,#227,.T.);
#351=ORIENTED_EDGE('',*,*,#229,.T.);
#352=ORIENTED_EDGE('',*,*,#232,.T.);
#353=ORIENTED_EDGE('',*,*,#236,.T.);
#354=ORIENTED_EDGE('',*,*,#238,.T.);
#355=ORIENTED_EDGE('',*,*,#253,.T.);
#356=ORIENTED_EDGE('',*,*,#254,.T.);
#357=ORIENTED_EDGE('',*,*,#253,.F.);
#358=ORIENTED_EDGE('',*,*,#254,.F.);
#359=ORIENTED_EDGE('',*,*,#255,.T.);
#360=ORIENTED_EDGE('',*,*,#249,.F.);
#361=ORIENTED_EDGE('',*,*,#255,.F.);
#362=CYLINDRICAL_SURFACE('',#406,115.);
#363=CYLINDRICAL_SURFACE('',#413,115.);
#364=CYLINDRICAL_SURFACE('',#418,115.);
#365=CYLINDRICAL_SURFACE('',#421,115.);
#366=CYLINDRICAL_SURFACE('',#433,150.);
#367=CYLINDRICAL_SURFACE('',#446,19.625);
#368=ADVANCED_FACE('',(#37),#362,.F.);
#369=ADVANCED_FACE('',(#38),#27,.F.);
#370=ADVANCED_FACE('',(#39),#28,.F.);
#371=ADVANCED_FACE('',(#40),#29,.F.);
#372=ADVANCED_FACE('',(#41),#30,.F.);
#373=ADVANCED_FACE('',(#42),#363,.F.);
#374=ADVANCED_FACE('',(#43),#31,.F.);
#375=ADVANCED_FACE('',(#44),#32,.F.);
#376=ADVANCED_FACE('',(#45),#364,.F.);
#377=ADVANCED_FACE('',(#46),#365,.F.);
#378=ADVANCED_FACE('',(#47),#33,.F.);
#379=ADVANCED_FACE('',(#48),#34,.F.);
#380=ADVANCED_FACE('',(#49),#25,.T.);
#381=ADVANCED_FACE('',(#50),#366,.T.);
#382=ADVANCED_FACE('',(#51,#15,#16,#17,#18,#19),#35,.F.);
#383=ADVANCED_FACE('',(#52),#26,.T.);
#384=ADVANCED_FACE('',(#53,#20,#21,#22,#23,#24),#36,.T.);
#385=ADVANCED_FACE('',(#54),#367,.F.);
#386=CLOSED_SHELL('',(#368,#369,#370,#371,#372,#373,#374,#375,#376,#377,
#378,#379,#380,#381,#382,#383,#384,#385));
#387=DERIVED_UNIT_ELEMENT(#389,1.);
#388=DERIVED_UNIT_ELEMENT(#675,3.);
#389=(
MASS_UNIT()
NAMED_UNIT(*)
SI_UNIT($,.GRAM.)
);
#390=DERIVED_UNIT((#387,#388));
#391=MEASURE_REPRESENTATION_ITEM('density measure',
POSITIVE_RATIO_MEASURE(1.),#390);
#392=PROPERTY_DEFINITION_REPRESENTATION(#397,#394);
#393=PROPERTY_DEFINITION_REPRESENTATION(#398,#395);
#394=REPRESENTATION('material name',(#396),#672);
#395=REPRESENTATION('density',(#391),#672);
#396=DESCRIPTIVE_REPRESENTATION_ITEM('G\X\E9n\X\E9rique','G\X\E9n\X\E9
rique');
#397=PROPERTY_DEFINITION('material property','material name',#682);
#398=PROPERTY_DEFINITION('material property','density of part',#682);
#399=DATE_TIME_ROLE('creation_date');
#400=APPLIED_DATE_AND_TIME_ASSIGNMENT(#401,#399,(#682));
#401=DATE_AND_TIME(#402,#403);
#402=CALENDAR_DATE(2020,9,12);
#403=LOCAL_TIME(0,0,0.,#404);
#404=COORDINATED_UNIVERSAL_TIME_OFFSET(0,0,.BEHIND.);
#405=AXIS2_PLACEMENT_3D('placement',#561,#447,#448);
#406=AXIS2_PLACEMENT_3D('',#562,#449,#450);
#407=AXIS2_PLACEMENT_3D('',#565,#451,#452);
#408=AXIS2_PLACEMENT_3D('',#569,#454,#455);
#409=AXIS2_PLACEMENT_3D('',#571,#457,#458);
#410=AXIS2_PLACEMENT_3D('',#577,#462,#463);
#411=AXIS2_PLACEMENT_3D('',#580,#466,#467);
#412=AXIS2_PLACEMENT_3D('',#589,#472,#473);
#413=AXIS2_PLACEMENT_3D('',#595,#477,#478);
#414=AXIS2_PLACEMENT_3D('',#596,#479,#480);
#415=AXIS2_PLACEMENT_3D('',#597,#481,#482);
#416=AXIS2_PLACEMENT_3D('',#598,#483,#484);
#417=AXIS2_PLACEMENT_3D('',#607,#489,#490);
#418=AXIS2_PLACEMENT_3D('',#613,#494,#495);
#419=AXIS2_PLACEMENT_3D('',#614,#496,#497);
#420=AXIS2_PLACEMENT_3D('',#615,#498,#499);
#421=AXIS2_PLACEMENT_3D('',#616,#500,#501);
#422=AXIS2_PLACEMENT_3D('',#619,#502,#503);
#423=AXIS2_PLACEMENT_3D('',#623,#505,#506);
#424=AXIS2_PLACEMENT_3D('',#625,#508,#509);
#425=AXIS2_PLACEMENT_3D('',#631,#513,#514);
#426=AXIS2_PLACEMENT_3D('',#634,#517,#518);
#427=AXIS2_PLACEMENT_3D('',#637,#519,#520);
#428=AXIS2_PLACEMENT_3D('',#639,#521,#522);
#429=AXIS2_PLACEMENT_3D('',#641,#523,#524);
#430=AXIS2_PLACEMENT_3D('',#642,#525,#526);
#431=AXIS2_PLACEMENT_3D('',#644,#527,#528);
#432=AXIS2_PLACEMENT_3D('',#645,#529,#530);
#433=AXIS2_PLACEMENT_3D('',#646,#531,#532);
#434=AXIS2_PLACEMENT_3D('',#649,#533,#534);
#435=AXIS2_PLACEMENT_3D('',#651,#535,#536);
#436=AXIS2_PLACEMENT_3D('',#652,#537,#538);
#437=AXIS2_PLACEMENT_3D('',#654,#540,#541);
#438=AXIS2_PLACEMENT_3D('',#656,#542,#543);
#439=AXIS2_PLACEMENT_3D('',#657,#544,#545);
#440=AXIS2_PLACEMENT_3D('',#660,#546,#547);
#441=AXIS2_PLACEMENT_3D('',#661,#548,#549);
#442=AXIS2_PLACEMENT_3D('',#662,#550,#551);
#443=AXIS2_PLACEMENT_3D('',#663,#552,#553);
#444=AXIS2_PLACEMENT_3D('',#666,#554,#555);
#445=AXIS2_PLACEMENT_3D('',#667,#556,#557);
#446=AXIS2_PLACEMENT_3D('',#668,#558,#559);
#447=DIRECTION('axis',(0.,0.,1.));
#448=DIRECTION('refdir',(1.,0.,0.));
#449=DIRECTION('center_axis',(0.,1.,0.));
#450=DIRECTION('ref_axis',(1.,0.,0.));
#451=DIRECTION('center_axis',(0.,1.,0.));
#452=DIRECTION('ref_axis',(1.,0.,0.));
#453=DIRECTION('',(0.,1.,0.));
#454=DIRECTION('center_axis',(0.,-1.,0.));
#455=DIRECTION('ref_axis',(1.,0.,0.));
#456=DIRECTION('',(0.,1.,0.));
#457=DIRECTION('center_axis',(2.51006944697861E-16,0.,-1.));
#458=DIRECTION('ref_axis',(-1.,0.,-2.51006944697861E-16));
#459=DIRECTION('',(-1.,0.,-2.51006944697861E-16));
#460=DIRECTION('',(0.,1.,0.));
#461=DIRECTION('',(1.,0.,2.51006944697861E-16));
#462=DIRECTION('center_axis',(1.,0.,0.));
#463=DIRECTION('ref_axis',(0.,0.,-1.));
#464=DIRECTION('',(0.,0.,-1.));
#465=DIRECTION('',(0.,0.,1.));
#466=DIRECTION('center_axis',(1.,0.,0.));
#467=DIRECTION('ref_axis',(0.,0.,-1.));
#468=DIRECTION('',(0.,0.,-1.));
#469=DIRECTION('',(0.,1.,0.));
#470=DIRECTION('',(0.,0.,1.));
#471=DIRECTION('',(0.,1.,0.));
#472=DIRECTION('center_axis',(-1.35157585606541E-16,0.,1.));
#473=DIRECTION('ref_axis',(1.,0.,1.35157585606541E-16));
#474=DIRECTION('',(1.,0.,1.35157585606541E-16));
#475=DIRECTION('',(0.,1.,0.));
#476=DIRECTION('',(-1.,0.,-1.35157585606541E-16));
#477=DIRECTION('center_axis',(0.,1.,0.));
#478=DIRECTION('ref_axis',(1.,0.,0.));
#479=DIRECTION('center_axis',(0.,1.,0.));
#480=DIRECTION('ref_axis',(1.,0.,0.));
#481=DIRECTION('center_axis',(0.,-1.,0.));
#482=DIRECTION('ref_axis',(1.,0.,0.));
#483=DIRECTION('center_axis',(-1.,0.,-1.15849359091321E-16));
#484=DIRECTION('ref_axis',(-1.15849359091321E-16,0.,1.));
#485=DIRECTION('',(-1.15849359091321E-16,0.,1.));
#486=DIRECTION('',(0.,1.,0.));
#487=DIRECTION('',(1.15849359091321E-16,0.,-1.));
#488=DIRECTION('',(0.,1.,0.));
#489=DIRECTION('center_axis',(2.51006944697861E-16,0.,-1.));
#490=DIRECTION('ref_axis',(-1.,0.,-2.51006944697861E-16));
#491=DIRECTION('',(-1.,0.,-2.51006944697861E-16));
#492=DIRECTION('',(0.,1.,0.));
#493=DIRECTION('',(1.,0.,2.51006944697861E-16));
#494=DIRECTION('center_axis',(0.,1.,0.));
#495=DIRECTION('ref_axis',(1.,0.,0.));
#496=DIRECTION('center_axis',(0.,1.,0.));
#497=DIRECTION('ref_axis',(1.,0.,0.));
#498=DIRECTION('center_axis',(0.,-1.,0.));
#499=DIRECTION('ref_axis',(1.,0.,0.));
#500=DIRECTION('center_axis',(0.,1.,0.));
#501=DIRECTION('ref_axis',(1.,0.,0.));
#502=DIRECTION('center_axis',(0.,1.,0.));
#503=DIRECTION('ref_axis',(1.,0.,0.));
#504=DIRECTION('',(0.,1.,0.));
#505=DIRECTION('center_axis',(0.,-1.,0.));
#506=DIRECTION('ref_axis',(1.,0.,0.));
#507=DIRECTION('',(0.,1.,0.));
#508=DIRECTION('center_axis',(-1.35157585606541E-16,0.,1.));
#509=DIRECTION('ref_axis',(1.,0.,1.35157585606541E-16));
#510=DIRECTION('',(1.,0.,1.35157585606541E-16));
#511=DIRECTION('',(0.,1.,0.));
#512=DIRECTION('',(-1.,0.,-1.35157585606541E-16));
#513=DIRECTION('center_axis',(-1.,0.,-1.15849359091321E-16));
#514=DIRECTION('ref_axis',(-1.15849359091321E-16,0.,1.));
#515=DIRECTION('',(-1.15849359091321E-16,0.,1.));
#516=DIRECTION('',(1.15849359091321E-16,0.,-1.));
#517=DIRECTION('center_axis',(0.,1.,0.));
#518=DIRECTION('ref_axis',(0.,0.,1.));
#519=DIRECTION('center_axis',(0.,-1.,0.));
#520=DIRECTION('ref_axis',(1.,0.,1.22464679914735E-16));
#521=DIRECTION('center_axis',(-1.,0.,1.22464679914735E-16));
#522=DIRECTION('ref_axis',(-1.22464679914735E-16,0.,-1.));
#523=DIRECTION('center_axis',(0.,1.,0.));
#524=DIRECTION('ref_axis',(1.,0.,1.22464679914735E-16));
#525=DIRECTION('center_axis',(0.,1.,0.));
#526=DIRECTION('ref_axis',(1.,0.,1.22464679914735E-16));
#527=DIRECTION('center_axis',(0.,-1.,0.));
#528=DIRECTION('ref_axis',(1.,0.,1.22464679914735E-16));
#529=DIRECTION('center_axis',(0.,-1.,0.));
#530=DIRECTION('ref_axis',(1.,0.,1.22464679914735E-16));
#531=DIRECTION('center_axis',(0.,1.,0.));
#532=DIRECTION('ref_axis',(-1.,0.,0.));
#533=DIRECTION('center_axis',(0.,1.,0.));
#534=DIRECTION('ref_axis',(1.,0.,1.22464679914735E-16));
#535=DIRECTION('center_axis',(0.,1.,0.));
#536=DIRECTION('ref_axis',(1.,0.,1.22464679914735E-16));
#537=DIRECTION('center_axis',(0.,1.,0.));
#538=DIRECTION('ref_axis',(1.,0.,1.22464679914735E-16));
#539=DIRECTION('',(0.,-1.,0.));
#540=DIRECTION('center_axis',(0.,1.,0.));
#541=DIRECTION('ref_axis',(0.,0.,1.));
#542=DIRECTION('center_axis',(0.,1.,0.));
#543=DIRECTION('ref_axis',(1.,0.,0.));
#544=DIRECTION('center_axis',(0.,1.,0.));
#545=DIRECTION('ref_axis',(0.,0.,1.));
#546=DIRECTION('center_axis',(0.,-1.,0.));
#547=DIRECTION('ref_axis',(1.,0.,1.22464679914735E-16));
#548=DIRECTION('center_axis',(-1.,0.,1.22464679914735E-16));
#549=DIRECTION('ref_axis',(-1.22464679914735E-16,0.,-1.));
#550=DIRECTION('center_axis',(0.,-1.,0.));
#551=DIRECTION('ref_axis',(1.,0.,1.22464679914735E-16));
#552=DIRECTION('center_axis',(0.,1.,0.));
#553=DIRECTION('ref_axis',(0.,0.,1.));
#554=DIRECTION('center_axis',(0.,-1.,0.));
#555=DIRECTION('ref_axis',(1.,0.,0.));
#556=DIRECTION('center_axis',(0.,-1.,0.));
#557=DIRECTION('ref_axis',(1.,0.,0.));
#558=DIRECTION('center_axis',(0.,1.,0.));
#559=DIRECTION('ref_axis',(1.,0.,0.));
#560=DIRECTION('',(0.,-1.,0.));
#561=CARTESIAN_POINT('',(0.,0.,0.));
#562=CARTESIAN_POINT('Origin',(0.,0.,0.));
#563=CARTESIAN_POINT('',(-113.660679216693,0.,17.5));
#564=CARTESIAN_POINT('',(-17.5,0.,113.660679216693));
#565=CARTESIAN_POINT('Origin',(0.,0.,0.));
#566=CARTESIAN_POINT('',(-113.660679216693,10.,17.5));
#567=CARTESIAN_POINT('',(-113.660679216693,0.,17.5));
#568=CARTESIAN_POINT('',(-17.5,10.,113.660679216693));
#569=CARTESIAN_POINT('Origin',(0.,10.,0.));
#570=CARTESIAN_POINT('',(-17.5,0.,113.660679216693));
#571=CARTESIAN_POINT('Origin',(-17.5,0.,17.5));
#572=CARTESIAN_POINT('',(-17.5,0.,17.5));
#573=CARTESIAN_POINT('',(-8.75,0.,17.5));
#574=CARTESIAN_POINT('',(-17.5,10.,17.5));
#575=CARTESIAN_POINT('',(-17.5,0.,17.5));
#576=CARTESIAN_POINT('',(-8.75,10.,17.5));
#577=CARTESIAN_POINT('Origin',(-17.5,0.,113.660679216693));
#578=CARTESIAN_POINT('',(-17.5,0.,56.8303396083465));
#579=CARTESIAN_POINT('',(-17.5,10.,56.8303396083465));
#580=CARTESIAN_POINT('Origin',(-17.5,0.,-17.5));
#581=CARTESIAN_POINT('',(-17.5,0.,-17.5));
#582=CARTESIAN_POINT('',(-17.5,0.,-113.660679216693));
#583=CARTESIAN_POINT('',(-17.5,0.,-8.75));
#584=CARTESIAN_POINT('',(-17.5,10.,-17.5));
#585=CARTESIAN_POINT('',(-17.5,0.,-17.5));
#586=CARTESIAN_POINT('',(-17.5,10.,-113.660679216693));
#587=CARTESIAN_POINT('',(-17.5,10.,-8.75));
#588=CARTESIAN_POINT('',(-17.5,0.,-113.660679216693));
#589=CARTESIAN_POINT('Origin',(-113.660679216693,0.,-17.5));
#590=CARTESIAN_POINT('',(-113.660679216693,0.,-17.5));
#591=CARTESIAN_POINT('',(-56.8303396083465,0.,-17.5));
#592=CARTESIAN_POINT('',(-113.660679216693,10.,-17.5));
#593=CARTESIAN_POINT('',(-113.660679216693,0.,-17.5));
#594=CARTESIAN_POINT('',(-56.8303396083465,10.,-17.5));
#595=CARTESIAN_POINT('Origin',(0.,0.,0.));
#596=CARTESIAN_POINT('Origin',(0.,0.,0.));
#597=CARTESIAN_POINT('Origin',(0.,10.,0.));
#598=CARTESIAN_POINT('Origin',(17.5,0.,17.5));
#599=CARTESIAN_POINT('',(17.5,0.,17.5));
#600=CARTESIAN_POINT('',(17.5,0.,113.660679216693));
#601=CARTESIAN_POINT('',(17.5,0.,8.75000000000001));
#602=CARTESIAN_POINT('',(17.5,10.,17.5));
#603=CARTESIAN_POINT('',(17.5,0.,17.5));
#604=CARTESIAN_POINT('',(17.5,10.,113.660679216693));
#605=CARTESIAN_POINT('',(17.5,10.,8.75000000000001));
#606=CARTESIAN_POINT('',(17.5,0.,113.660679216693));
#607=CARTESIAN_POINT('Origin',(113.660679216693,0.,17.5));
#608=CARTESIAN_POINT('',(113.660679216693,0.,17.5));
#609=CARTESIAN_POINT('',(56.8303396083465,0.,17.5));
#610=CARTESIAN_POINT('',(113.660679216693,10.,17.5));
#611=CARTESIAN_POINT('',(113.660679216693,0.,17.5));
#612=CARTESIAN_POINT('',(56.8303396083465,10.,17.5));
#613=CARTESIAN_POINT('Origin',(0.,0.,0.));
#614=CARTESIAN_POINT('Origin',(0.,0.,0.));
#615=CARTESIAN_POINT('Origin',(0.,10.,0.));
#616=CARTESIAN_POINT('Origin',(0.,0.,0.));
#617=CARTESIAN_POINT('',(113.660679216693,0.,-17.5));
#618=CARTESIAN_POINT('',(17.5,0.,-113.660679216693));
#619=CARTESIAN_POINT('Origin',(0.,0.,0.));
#620=CARTESIAN_POINT('',(113.660679216693,10.,-17.5));
#621=CARTESIAN_POINT('',(113.660679216693,0.,-17.5));
#622=CARTESIAN_POINT('',(17.5,10.,-113.660679216693));
#623=CARTESIAN_POINT('Origin',(0.,10.,0.));
#624=CARTESIAN_POINT('',(17.5,0.,-113.660679216693));
#625=CARTESIAN_POINT('Origin',(17.5,0.,-17.5));
#626=CARTESIAN_POINT('',(17.5,0.,-17.5));
#627=CARTESIAN_POINT('',(8.74999999999999,0.,-17.5));
#628=CARTESIAN_POINT('',(17.5,10.,-17.5));
#629=CARTESIAN_POINT('',(17.5,0.,-17.5));
#630=CARTESIAN_POINT('',(8.74999999999999,10.,-17.5));
#631=CARTESIAN_POINT('Origin',(17.5,0.,-113.660679216693));
#632=CARTESIAN_POINT('',(17.5,0.,-56.8303396083465));
#633=CARTESIAN_POINT('',(17.5,10.,-56.8303396083465));
#634=CARTESIAN_POINT('Origin',(0.,1.,0.));
#635=CARTESIAN_POINT('',(-150.,1.,-3.67394039744206E-14));
#636=CARTESIAN_POINT('',(-1.83697019872103E-14,1.,-150.));
#637=CARTESIAN_POINT('Origin',(0.,1.,0.));
#638=CARTESIAN_POINT('',(-1.82472373072956E-14,0.,-149.));
#639=CARTESIAN_POINT('Origin',(-1.82472373072956E-14,1.,-149.));
#640=CARTESIAN_POINT('',(-149.,0.,0.));
#641=CARTESIAN_POINT('Origin',(0.,0.,0.));
#642=CARTESIAN_POINT('Origin',(0.,0.,0.));
#643=CARTESIAN_POINT('',(150.,1.,-1.83697019872103E-14));
#644=CARTESIAN_POINT('Origin',(0.,1.,0.));
#645=CARTESIAN_POINT('Origin',(0.,1.,0.));
#646=CARTESIAN_POINT('Origin',(0.,0.,0.));
#647=CARTESIAN_POINT('',(-150.,9.,0.));
#648=CARTESIAN_POINT('',(150.,9.,-1.83697019872103E-14));
#649=CARTESIAN_POINT('Origin',(0.,9.,0.));
#650=CARTESIAN_POINT('',(-1.83697019872103E-14,9.,-150.));
#651=CARTESIAN_POINT('Origin',(0.,9.,0.));
#652=CARTESIAN_POINT('Origin',(0.,9.,0.));
#653=CARTESIAN_POINT('',(150.,0.,-1.83697019872103E-14));
#654=CARTESIAN_POINT('Origin',(0.,0.,0.));
#655=CARTESIAN_POINT('',(-19.625,0.,2.40336934332668E-15));
#656=CARTESIAN_POINT('Origin',(0.,0.,0.));
#657=CARTESIAN_POINT('Origin',(0.,9.,0.));
#658=CARTESIAN_POINT('',(-149.,10.,-3.64944746145911E-14));
#659=CARTESIAN_POINT('',(-1.82472373072956E-14,10.,-149.));
#660=CARTESIAN_POINT('Origin',(0.,10.,0.));
#661=CARTESIAN_POINT('Origin',(-1.82472373072956E-14,9.,-149.));
#662=CARTESIAN_POINT('Origin',(0.,10.,0.));
#663=CARTESIAN_POINT('Origin',(0.,10.,0.));
#664=CARTESIAN_POINT('',(19.625,10.,0.));
#665=CARTESIAN_POINT('',(-19.625,10.,2.40336934332668E-15));
#666=CARTESIAN_POINT('Origin',(0.,10.,0.));
#667=CARTESIAN_POINT('Origin',(0.,10.,0.));
#668=CARTESIAN_POINT('Origin',(0.,-414.381903478459,0.));
#669=CARTESIAN_POINT('',(-19.625,-414.381903478459,2.40336934332668E-15));
#670=UNCERTAINTY_MEASURE_WITH_UNIT(LENGTH_MEASURE(0.01),#674,
'DISTANCE_ACCURACY_VALUE',
'Maximum model space distance between geometric entities at asserted c
onnectivities');
#671=UNCERTAINTY_MEASURE_WITH_UNIT(LENGTH_MEASURE(0.01),#674,
'DISTANCE_ACCURACY_VALUE',
'Maximum model space distance between geometric entities at asserted c
onnectivities');
#672=(
GEOMETRIC_REPRESENTATION_CONTEXT(3)
GLOBAL_UNCERTAINTY_ASSIGNED_CONTEXT((#670))
GLOBAL_UNIT_ASSIGNED_CONTEXT((#674,#676,#677))
REPRESENTATION_CONTEXT('','3D')
);
#673=(
GEOMETRIC_REPRESENTATION_CONTEXT(3)
GLOBAL_UNCERTAINTY_ASSIGNED_CONTEXT((#671))
GLOBAL_UNIT_ASSIGNED_CONTEXT((#674,#676,#677))
REPRESENTATION_CONTEXT('','3D')
);
#674=(
LENGTH_UNIT()
NAMED_UNIT(*)
SI_UNIT(.MILLI.,.METRE.)
);
#675=(
LENGTH_UNIT()
NAMED_UNIT(*)
SI_UNIT(.CENTI.,.METRE.)
);
#676=(
NAMED_UNIT(*)
PLANE_ANGLE_UNIT()
SI_UNIT($,.RADIAN.)
);
#677=(
NAMED_UNIT(*)
SI_UNIT($,.STERADIAN.)
SOLID_ANGLE_UNIT()
);
#678=SHAPE_DEFINITION_REPRESENTATION(#679,#680);
#679=PRODUCT_DEFINITION_SHAPE('',$,#682);
#680=SHAPE_REPRESENTATION('',(#405),#672);
#681=PRODUCT_DEFINITION_CONTEXT('part definition',#686,'design');
#682=PRODUCT_DEFINITION('disque','disque',#683,#681);
#683=PRODUCT_DEFINITION_FORMATION('',$,#688);
#684=PRODUCT_RELATED_PRODUCT_CATEGORY('disque','disque',(#688));
#685=APPLICATION_PROTOCOL_DEFINITION('international standard',
'automotive_design',2009,#686);
#686=APPLICATION_CONTEXT(
'Core Data for Automotive Mechanical Design Process');
#687=PRODUCT_CONTEXT('part definition',#686,'mechanical');
#688=PRODUCT('disque','disque',$,(#687));
#689=PRESENTATION_STYLE_ASSIGNMENT((#690));
#690=SURFACE_STYLE_USAGE(.BOTH.,#693);
#691=SURFACE_STYLE_RENDERING_WITH_PROPERTIES($,#697,(#692));
#692=SURFACE_STYLE_TRANSPARENT(0.);
#693=SURFACE_SIDE_STYLE('',(#694,#691));
#694=SURFACE_STYLE_FILL_AREA(#695);
#695=FILL_AREA_STYLE('',(#696));
#696=FILL_AREA_STYLE_COLOUR('',#697);
#697=COLOUR_RGB('',0.749019607843137,0.749019607843137,0.749019607843137);
ENDSEC;
END-ISO-10303-21;
