ISO-10303-21;
HEADER;
FILE_DESCRIPTION(('CATIA V5 STEP Exchange'),'2;1');

FILE_NAME('C:\\Users\\Julie\\Documents\\Pion PT.stp','2020-12-11T10:18:55+00:00',('none'),('none'),'CATIA Version 5 Release 17 (IN-10)','CATIA V5 STEP AP203','none');

FILE_SCHEMA(('CONFIG_CONTROL_DESIGN'));

ENDSEC;
/* file written by CATIA V5R17 */
DATA;
#5=PRODUCT('Part1','','',(#2)) ;
#1=APPLICATION_CONTEXT('configuration controlled 3D design of mechanical parts and assemblies') ;
#14=PRODUCT_DEFINITION(' ',' ',#6,#3) ;
#16=SECURITY_CLASSIFICATION(' ',' ',#15) ;
#15=SECURITY_CLASSIFICATION_LEVEL('unclassified') ;
#47=CARTESIAN_POINT(' ',(0.,0.,0.)) ;
#52=CARTESIAN_POINT('Axis2P3D Location',(0.,0.,18.3)) ;
#57=CARTESIAN_POINT('Line Origine',(-8.11763869749,4.43468623209,8.9)) ;
#61=CARTESIAN_POINT('Vertex',(-8.11763869749,4.43468623209,0.4)) ;
#63=CARTESIAN_POINT('Vertex',(-8.11763869749,4.43468623209,17.4)) ;
#66=CARTESIAN_POINT('Axis2P3D Location',(0.,0.,17.4)) ;
#70=CARTESIAN_POINT('Vertex',(8.11763869749,-4.43468623209,17.4)) ;
#73=CARTESIAN_POINT('Line Origine',(8.11763869749,-4.43468623209,8.9)) ;
#77=CARTESIAN_POINT('Vertex',(8.11763869749,-4.43468623209,0.4)) ;
#80=CARTESIAN_POINT('Axis2P3D Location',(0.,0.,0.4)) ;
#92=CARTESIAN_POINT('Axis2P3D Location',(0.,0.,0.4)) ;
#97=CARTESIAN_POINT('Axis2P3D Location',(0.,0.,0.4)) ;
#107=CARTESIAN_POINT('Axis2P3D Location',(0.,-21.,18.4)) ;
#112=CARTESIAN_POINT('Axis2P3D Location',(0.,0.,18.4)) ;
#116=CARTESIAN_POINT('Vertex',(10.0679363107,-18.4292337997,18.4)) ;
#118=CARTESIAN_POINT('Vertex',(-10.0679363107,18.4292337997,18.4)) ;
#121=CARTESIAN_POINT('Axis2P3D Location',(0.,0.,18.4)) ;
#130=CARTESIAN_POINT('Axis2P3D Location',(0.,0.,18.4)) ;
#134=CARTESIAN_POINT('Vertex',(-8.99522125938,4.91411177069,18.4)) ;
#136=CARTESIAN_POINT('Vertex',(8.99522125938,-4.91411177069,18.4)) ;
#139=CARTESIAN_POINT('Axis2P3D Location',(-8.881784197E-016,0.,18.4)) ;
#150=CARTESIAN_POINT('Control Point',(0.,-21.,18.4)) ;
#151=CARTESIAN_POINT('Control Point',(0.,-22.4869164677,13.9613388488)) ;
#152=CARTESIAN_POINT('Control Point',(0.,-23.0174336319,9.2)) ;
#153=CARTESIAN_POINT('Control Point',(0.,-22.4869164677,4.43866115118)) ;
#154=CARTESIAN_POINT('Control Point',(0.,-21.,2.30926389122E-014)) ;
#155=CARTESIAN_POINT('Axis1P Location',(0.,0.,8.05000000008)) ;
#160=CARTESIAN_POINT('Control Point',(10.0679363107,-18.4292337997,18.4)) ;
#161=CARTESIAN_POINT('Control Point',(10.7808020391,-19.7341257627,13.9613388488)) ;
#162=CARTESIAN_POINT('Control Point',(11.0351455163,-20.1996983748,9.2)) ;
#163=CARTESIAN_POINT('Control Point',(10.7808020391,-19.7341257627,4.43866115118)) ;
#164=CARTESIAN_POINT('Control Point',(10.0679363107,-18.4292337997,2.30926389122E-014)) ;
#165=CARTESIAN_POINT('Vertex',(10.0679363107,-18.4292337997,2.30926389122E-014)) ;
#168=CARTESIAN_POINT('Axis2P3D Location',(0.,0.,2.30926389122E-014)) ;
#172=CARTESIAN_POINT('Vertex',(-10.0679363107,18.4292337997,2.30926389122E-014)) ;
#176=CARTESIAN_POINT('Control Point',(-10.0679363107,18.4292337997,18.4)) ;
#177=CARTESIAN_POINT('Control Point',(-10.7808020391,19.7341257627,13.9613388488)) ;
#178=CARTESIAN_POINT('Control Point',(-11.0351455163,20.1996983748,9.2)) ;
#179=CARTESIAN_POINT('Control Point',(-10.7808020391,19.7341257627,4.43866115118)) ;
#180=CARTESIAN_POINT('Control Point',(-10.0679363107,18.4292337997,2.30926389122E-014)) ;
#190=CARTESIAN_POINT('Control Point',(0.,-21.,18.4)) ;
#191=CARTESIAN_POINT('Control Point',(0.,-22.4869164677,13.9613388488)) ;
#192=CARTESIAN_POINT('Control Point',(0.,-23.0174336319,9.2)) ;
#193=CARTESIAN_POINT('Control Point',(0.,-22.4869164677,4.43866115118)) ;
#194=CARTESIAN_POINT('Control Point',(0.,-21.,2.30926389122E-014)) ;
#195=CARTESIAN_POINT('Axis1P Location',(0.,0.,8.05000000008)) ;
#199=CARTESIAN_POINT('Axis2P3D Location',(0.,0.,2.30926389122E-014)) ;
#211=CARTESIAN_POINT('Axis2P3D Location',(0.,-21.,0.)) ;
#220=CARTESIAN_POINT('Axis2P3D Location',(0.,0.,0.)) ;
#224=CARTESIAN_POINT('Vertex',(-9.82822354139,17.9904425188,0.)) ;
#226=CARTESIAN_POINT('Vertex',(9.82822354139,-17.9904425188,0.)) ;
#229=CARTESIAN_POINT('Axis2P3D Location',(0.,0.,0.)) ;
#239=CARTESIAN_POINT('Axis2P3D Location',(0.,0.,8.05000000008)) ;
#244=CARTESIAN_POINT('Line Origine',(9.82822354139,-17.9904425188,-1.)) ;
#248=CARTESIAN_POINT('Vertex',(9.82822354139,-17.9904425188,-2.)) ;
#251=CARTESIAN_POINT('Axis2P3D Location',(0.,0.,-2.)) ;
#255=CARTESIAN_POINT('Vertex',(-9.82822354139,17.9904425188,-2.)) ;
#258=CARTESIAN_POINT('Line Origine',(-9.82822354139,17.9904425188,-1.)) ;
#270=CARTESIAN_POINT('Axis2P3D Location',(0.,0.,-2.)) ;
#282=CARTESIAN_POINT('Axis2P3D Location',(0.,0.,698.266666667)) ;
#287=CARTESIAN_POINT('Axis2P3D Location',(0.,0.,698.266666667)) ;
#291=CARTESIAN_POINT('Vertex',(2.05653993408E-014,-3.76447109855E-014,-2.3)) ;
#294=CARTESIAN_POINT('Axis2P3D Location',(0.,0.,698.266666667)) ;
#311=CARTESIAN_POINT('Axis2P3D Location',(0.,0.,17.4)) ;
#316=CARTESIAN_POINT('Line Origine',(-8.61848443649,4.70829950633,17.9707106781)) ;
#321=CARTESIAN_POINT('Axis2P3D Location',(0.,0.,17.4)) ;
#326=CARTESIAN_POINT('Line Origine',(8.61848443649,-4.70829950633,17.9707106781)) ;
#53=DIRECTION('Axis2P3D Direction',(0.,0.,-1.)) ;
#54=DIRECTION('Axis2P3D XDirection',(0.87758256189,-0.479425538604,0.)) ;
#58=DIRECTION('Vector Direction',(0.,0.,-1.)) ;
#67=DIRECTION('Axis2P3D Direction',(0.,0.,-1.)) ;
#74=DIRECTION('Vector Direction',(0.,0.,-1.)) ;
#81=DIRECTION('Axis2P3D Direction',(0.,0.,-1.)) ;
#93=DIRECTION('Axis2P3D Direction',(0.,0.,-1.)) ;
#94=DIRECTION('Axis2P3D XDirection',(1.,0.,0.)) ;
#98=DIRECTION('Axis2P3D Direction',(0.,0.,-1.)) ;
#108=DIRECTION('Axis2P3D Direction',(0.,0.,1.)) ;
#109=DIRECTION('Axis2P3D XDirection',(1.,0.,0.)) ;
#113=DIRECTION('Axis2P3D Direction',(0.,0.,1.)) ;
#122=DIRECTION('Axis2P3D Direction',(0.,0.,1.)) ;
#131=DIRECTION('Axis2P3D Direction',(0.,0.,1.)) ;
#140=DIRECTION('Axis2P3D Direction',(0.,0.,1.)) ;
#156=DIRECTION('Axis1P Direction',(0.,0.,1.)) ;
#169=DIRECTION('Axis2P3D Direction',(0.,0.,1.)) ;
#196=DIRECTION('Axis1P Direction',(0.,0.,1.)) ;
#200=DIRECTION('Axis2P3D Direction',(0.,0.,1.)) ;
#212=DIRECTION('Axis2P3D Direction',(0.,0.,1.)) ;
#213=DIRECTION('Axis2P3D XDirection',(1.,0.,0.)) ;
#221=DIRECTION('Axis2P3D Direction',(0.,0.,1.)) ;
#230=DIRECTION('Axis2P3D Direction',(0.,0.,1.)) ;
#240=DIRECTION('Axis2P3D Direction',(0.,0.,1.)) ;
#241=DIRECTION('Axis2P3D XDirection',(0.479425538604,-0.87758256189,0.)) ;
#245=DIRECTION('Vector Direction',(0.,0.,1.)) ;
#252=DIRECTION('Axis2P3D Direction',(0.,0.,1.)) ;
#259=DIRECTION('Vector Direction',(0.,0.,1.)) ;
#271=DIRECTION('Axis2P3D Direction',(0.,0.,1.)) ;
#283=DIRECTION('Axis2P3D Direction',(0.,0.,1.)) ;
#284=DIRECTION('Axis2P3D XDirection',(0.479425538604,-0.87758256189,0.)) ;
#288=DIRECTION('Axis2P3D Direction',(-0.87758256189,-0.479425538604,0.)) ;
#295=DIRECTION('Axis2P3D Direction',(0.87758256189,0.479425538604,0.)) ;
#312=DIRECTION('Axis2P3D Direction',(0.,0.,1.)) ;
#313=DIRECTION('Axis2P3D XDirection',(0.87758256189,-0.479425538604,0.)) ;
#317=DIRECTION('Vector Direction',(-0.620544580564,0.339005049421,0.707106781187)) ;
#322=DIRECTION('Axis2P3D Direction',(0.,0.,1.)) ;
#327=DIRECTION('Vector Direction',(0.620544580564,-0.339005049421,0.707106781187)) ;
#48=AXIS2_PLACEMENT_3D(' ',#47,$,$) ;
#55=AXIS2_PLACEMENT_3D('Cylinder Axis2P3D',#52,#53,#54) ;
#68=AXIS2_PLACEMENT_3D('Circle Axis2P3D',#66,#67,$) ;
#82=AXIS2_PLACEMENT_3D('Circle Axis2P3D',#80,#81,$) ;
#95=AXIS2_PLACEMENT_3D('Plane Axis2P3D',#92,#93,#94) ;
#99=AXIS2_PLACEMENT_3D('Circle Axis2P3D',#97,#98,$) ;
#110=AXIS2_PLACEMENT_3D('Plane Axis2P3D',#107,#108,#109) ;
#114=AXIS2_PLACEMENT_3D('Circle Axis2P3D',#112,#113,$) ;
#123=AXIS2_PLACEMENT_3D('Circle Axis2P3D',#121,#122,$) ;
#132=AXIS2_PLACEMENT_3D('Circle Axis2P3D',#130,#131,$) ;
#141=AXIS2_PLACEMENT_3D('Circle Axis2P3D',#139,#140,$) ;
#170=AXIS2_PLACEMENT_3D('Circle Axis2P3D',#168,#169,$) ;
#201=AXIS2_PLACEMENT_3D('Circle Axis2P3D',#199,#200,$) ;
#214=AXIS2_PLACEMENT_3D('Plane Axis2P3D',#211,#212,#213) ;
#222=AXIS2_PLACEMENT_3D('Circle Axis2P3D',#220,#221,$) ;
#231=AXIS2_PLACEMENT_3D('Circle Axis2P3D',#229,#230,$) ;
#242=AXIS2_PLACEMENT_3D('Cylinder Axis2P3D',#239,#240,#241) ;
#253=AXIS2_PLACEMENT_3D('Circle Axis2P3D',#251,#252,$) ;
#272=AXIS2_PLACEMENT_3D('Circle Axis2P3D',#270,#271,$) ;
#285=AXIS2_PLACEMENT_3D('Sphere Axis2P3D',#282,#283,#284) ;
#289=AXIS2_PLACEMENT_3D('Circle Axis2P3D',#287,#288,$) ;
#296=AXIS2_PLACEMENT_3D('Circle Axis2P3D',#294,#295,$) ;
#314=AXIS2_PLACEMENT_3D('Cone Axis2P3D',#311,#312,#313) ;
#323=AXIS2_PLACEMENT_3D('Circle Axis2P3D',#321,#322,$) ;
#40=PRODUCT_DEFINITION_SHAPE(' ',' ',#14) ;
#31=APPROVAL_PERSON_ORGANIZATION(#25,#21,#19) ;
#25=PERSON_AND_ORGANIZATION(#22,#23) ;
#22=PERSON(' ',' ',' ',$,$,$) ;
#23=ORGANIZATION(' ',' ',' ') ;
#21=APPROVAL(#20,' ') ;
#20=APPROVAL_STATUS('not_yet_approved') ;
#19=APPROVAL_ROLE('APPROVER') ;
#13=DATE_AND_TIME(#11,#12) ;
#12=LOCAL_TIME(11,18,55.,#10) ;
#10=COORDINATED_UNIVERSAL_TIME_OFFSET(0,0,.AHEAD.) ;
#86=ORIENTED_EDGE('',*,*,#65,.T.) ;
#87=ORIENTED_EDGE('',*,*,#72,.F.) ;
#88=ORIENTED_EDGE('',*,*,#79,.F.) ;
#89=ORIENTED_EDGE('',*,*,#84,.T.) ;
#103=ORIENTED_EDGE('',*,*,#101,.F.) ;
#104=ORIENTED_EDGE('',*,*,#84,.F.) ;
#127=ORIENTED_EDGE('',*,*,#120,.T.) ;
#128=ORIENTED_EDGE('',*,*,#125,.T.) ;
#145=ORIENTED_EDGE('',*,*,#138,.F.) ;
#146=ORIENTED_EDGE('',*,*,#143,.F.) ;
#183=ORIENTED_EDGE('',*,*,#120,.F.) ;
#184=ORIENTED_EDGE('',*,*,#167,.T.) ;
#185=ORIENTED_EDGE('',*,*,#174,.T.) ;
#186=ORIENTED_EDGE('',*,*,#181,.F.) ;
#205=ORIENTED_EDGE('',*,*,#125,.F.) ;
#206=ORIENTED_EDGE('',*,*,#181,.T.) ;
#207=ORIENTED_EDGE('',*,*,#203,.T.) ;
#208=ORIENTED_EDGE('',*,*,#167,.F.) ;
#217=ORIENTED_EDGE('',*,*,#174,.F.) ;
#218=ORIENTED_EDGE('',*,*,#203,.F.) ;
#235=ORIENTED_EDGE('',*,*,#228,.T.) ;
#236=ORIENTED_EDGE('',*,*,#233,.T.) ;
#264=ORIENTED_EDGE('',*,*,#233,.F.) ;
#265=ORIENTED_EDGE('',*,*,#250,.T.) ;
#266=ORIENTED_EDGE('',*,*,#257,.T.) ;
#267=ORIENTED_EDGE('',*,*,#262,.F.) ;
#276=ORIENTED_EDGE('',*,*,#228,.F.) ;
#277=ORIENTED_EDGE('',*,*,#262,.T.) ;
#278=ORIENTED_EDGE('',*,*,#274,.T.) ;
#279=ORIENTED_EDGE('',*,*,#250,.F.) ;
#300=ORIENTED_EDGE('',*,*,#257,.F.) ;
#301=ORIENTED_EDGE('',*,*,#293,.T.) ;
#302=ORIENTED_EDGE('',*,*,#298,.F.) ;
#306=ORIENTED_EDGE('',*,*,#274,.F.) ;
#307=ORIENTED_EDGE('',*,*,#298,.T.) ;
#308=ORIENTED_EDGE('',*,*,#293,.F.) ;
#332=ORIENTED_EDGE('',*,*,#143,.T.) ;
#333=ORIENTED_EDGE('',*,*,#320,.F.) ;
#334=ORIENTED_EDGE('',*,*,#325,.T.) ;
#335=ORIENTED_EDGE('',*,*,#330,.T.) ;
#339=ORIENTED_EDGE('',*,*,#138,.T.) ;
#340=ORIENTED_EDGE('',*,*,#330,.F.) ;
#341=ORIENTED_EDGE('',*,*,#72,.T.) ;
#342=ORIENTED_EDGE('',*,*,#320,.T.) ;
#346=ORIENTED_EDGE('',*,*,#79,.T.) ;
#347=ORIENTED_EDGE('',*,*,#325,.F.) ;
#348=ORIENTED_EDGE('',*,*,#65,.F.) ;
#349=ORIENTED_EDGE('',*,*,#101,.T.) ;
#147=FACE_BOUND('',#144,.T.) ;
#237=FACE_BOUND('',#234,.T.) ;
#51=CLOSED_SHELL('Closed Shell',(#91,#106,#148,#188,#210,#238,#269,#281,#304,#310,#337,#344,#351)) ;
#59=VECTOR('Line Direction',#58,1.) ;
#75=VECTOR('Line Direction',#74,1.) ;
#246=VECTOR('Line Direction',#245,1.) ;
#260=VECTOR('Line Direction',#259,1.) ;
#318=VECTOR('Line Direction',#317,1.) ;
#328=VECTOR('Line Direction',#327,1.) ;
#353=ADVANCED_BREP_SHAPE_REPRESENTATION('NONE',(#352),#46) ;
#49=SHAPE_REPRESENTATION(' ',(#48),#46) ;
#91=ADVANCED_FACE('',(#90),#56,.F.) ;
#106=ADVANCED_FACE('',(#105),#96,.F.) ;
#148=ADVANCED_FACE('',(#129,#147),#111,.T.) ;
#188=ADVANCED_FACE('',(#187),#158,.F.) ;
#210=ADVANCED_FACE('',(#209),#198,.F.) ;
#238=ADVANCED_FACE('',(#219,#237),#215,.F.) ;
#269=ADVANCED_FACE('',(#268),#243,.T.) ;
#281=ADVANCED_FACE('',(#280),#243,.T.) ;
#304=ADVANCED_FACE('',(#303),#286,.T.) ;
#310=ADVANCED_FACE('',(#309),#286,.T.) ;
#337=ADVANCED_FACE('',(#336),#315,.F.) ;
#344=ADVANCED_FACE('',(#343),#315,.F.) ;
#351=ADVANCED_FACE('',(#350),#56,.F.) ;
#4=APPLICATION_PROTOCOL_DEFINITION('international standard','config_control_design',1994,#1) ;
#32=APPROVAL_DATE_TIME(#13,#21) ;
#157=AXIS1_PLACEMENT('Revolution Surface Axis1P',#155,#156) ;
#197=AXIS1_PLACEMENT('Revolution Surface Axis1P',#195,#196) ;
#149=B_SPLINE_CURVE_WITH_KNOTS('',4,(#150,#151,#152,#153,#154),.UNSPECIFIED.,.F.,.U.,(5,5),(81.6288088556,100.353181591),.UNSPECIFIED.) ;
#159=B_SPLINE_CURVE_WITH_KNOTS('',4,(#160,#161,#162,#163,#164),.UNSPECIFIED.,.F.,.U.,(5,5),(81.6288088556,100.353181591),.UNSPECIFIED.) ;
#175=B_SPLINE_CURVE_WITH_KNOTS('',4,(#176,#177,#178,#179,#180),.UNSPECIFIED.,.F.,.U.,(5,5),(81.6288088556,100.353181591),.UNSPECIFIED.) ;
#189=B_SPLINE_CURVE_WITH_KNOTS('',4,(#190,#191,#192,#193,#194),.UNSPECIFIED.,.F.,.U.,(5,5),(81.6288088556,100.353181591),.UNSPECIFIED.) ;
#352=MANIFOLD_SOLID_BREP('Corps principal',#51) ;
#11=CALENDAR_DATE(2020,11,12) ;
#30=CC_DESIGN_APPROVAL(#21,(#16,#6,#14)) ;
#18=CC_DESIGN_DATE_AND_TIME_ASSIGNMENT(#13,#17,(#16)) ;
#29=CC_DESIGN_DATE_AND_TIME_ASSIGNMENT(#13,#28,(#14)) ;
#17=DATE_TIME_ROLE('classification_date') ;
#28=DATE_TIME_ROLE('creation_date') ;
#27=CC_DESIGN_PERSON_AND_ORGANIZATION_ASSIGNMENT(#25,#26,(#16)) ;
#33=CC_DESIGN_PERSON_AND_ORGANIZATION_ASSIGNMENT(#25,#34,(#6)) ;
#35=CC_DESIGN_PERSON_AND_ORGANIZATION_ASSIGNMENT(#25,#36,(#6,#14)) ;
#37=CC_DESIGN_PERSON_AND_ORGANIZATION_ASSIGNMENT(#25,#38,(#5)) ;
#26=PERSON_AND_ORGANIZATION_ROLE('classification_officer') ;
#34=PERSON_AND_ORGANIZATION_ROLE('design_supplier') ;
#36=PERSON_AND_ORGANIZATION_ROLE('creator') ;
#38=PERSON_AND_ORGANIZATION_ROLE('design_owner') ;
#39=CC_DESIGN_SECURITY_CLASSIFICATION(#16,(#6)) ;
#69=CIRCLE('generated circle',#68,9.25) ;
#83=CIRCLE('generated circle',#82,9.25) ;
#100=CIRCLE('generated circle',#99,9.25) ;
#115=CIRCLE('generated circle',#114,21.) ;
#124=CIRCLE('generated circle',#123,21.) ;
#133=CIRCLE('generated circle',#132,10.25) ;
#142=CIRCLE('generated circle',#141,10.25) ;
#171=CIRCLE('generated circle',#170,21.) ;
#202=CIRCLE('generated circle',#201,21.) ;
#223=CIRCLE('generated circle',#222,20.5) ;
#232=CIRCLE('generated circle',#231,20.5) ;
#254=CIRCLE('generated circle',#253,20.5) ;
#273=CIRCLE('generated circle',#272,20.5) ;
#290=CIRCLE('generated circle',#289,700.566666667) ;
#297=CIRCLE('generated circle',#296,700.566666667) ;
#324=CIRCLE('generated circle',#323,9.25) ;
#315=CONICAL_SURFACE('Cone',#314,9.25,0.785398163397) ;
#354=SHAPE_REPRESENTATION_RELATIONSHIP(' ',' ',#49,#353) ;
#56=CYLINDRICAL_SURFACE('generated cylinder',#55,9.25) ;
#243=CYLINDRICAL_SURFACE('generated cylinder',#242,20.5) ;
#3=DESIGN_CONTEXT(' ',#1,'design') ;
#65=EDGE_CURVE('',#62,#64,#60,.F.) ;
#72=EDGE_CURVE('',#71,#64,#69,.T.) ;
#79=EDGE_CURVE('',#78,#71,#76,.F.) ;
#84=EDGE_CURVE('',#78,#62,#83,.T.) ;
#101=EDGE_CURVE('',#62,#78,#100,.T.) ;
#120=EDGE_CURVE('',#117,#119,#115,.T.) ;
#125=EDGE_CURVE('',#119,#117,#124,.T.) ;
#138=EDGE_CURVE('',#135,#137,#133,.T.) ;
#143=EDGE_CURVE('',#137,#135,#142,.T.) ;
#167=EDGE_CURVE('',#117,#166,#159,.T.) ;
#174=EDGE_CURVE('',#166,#173,#171,.T.) ;
#181=EDGE_CURVE('',#119,#173,#175,.T.) ;
#203=EDGE_CURVE('',#173,#166,#202,.T.) ;
#228=EDGE_CURVE('',#225,#227,#223,.T.) ;
#233=EDGE_CURVE('',#227,#225,#232,.T.) ;
#250=EDGE_CURVE('',#227,#249,#247,.F.) ;
#257=EDGE_CURVE('',#249,#256,#254,.T.) ;
#262=EDGE_CURVE('',#225,#256,#261,.F.) ;
#274=EDGE_CURVE('',#256,#249,#273,.T.) ;
#293=EDGE_CURVE('',#249,#292,#290,.F.) ;
#298=EDGE_CURVE('',#256,#292,#297,.F.) ;
#320=EDGE_CURVE('',#64,#135,#319,.T.) ;
#325=EDGE_CURVE('',#64,#71,#324,.F.) ;
#330=EDGE_CURVE('',#71,#137,#329,.T.) ;
#85=EDGE_LOOP('',(#86,#87,#88,#89)) ;
#102=EDGE_LOOP('',(#103,#104)) ;
#126=EDGE_LOOP('',(#127,#128)) ;
#144=EDGE_LOOP('',(#145,#146)) ;
#182=EDGE_LOOP('',(#183,#184,#185,#186)) ;
#204=EDGE_LOOP('',(#205,#206,#207,#208)) ;
#216=EDGE_LOOP('',(#217,#218)) ;
#234=EDGE_LOOP('',(#235,#236)) ;
#263=EDGE_LOOP('',(#264,#265,#266,#267)) ;
#275=EDGE_LOOP('',(#276,#277,#278,#279)) ;
#299=EDGE_LOOP('',(#300,#301,#302)) ;
#305=EDGE_LOOP('',(#306,#307,#308)) ;
#331=EDGE_LOOP('',(#332,#333,#334,#335)) ;
#338=EDGE_LOOP('',(#339,#340,#341,#342)) ;
#345=EDGE_LOOP('',(#346,#347,#348,#349)) ;
#90=FACE_OUTER_BOUND('',#85,.T.) ;
#105=FACE_OUTER_BOUND('',#102,.T.) ;
#129=FACE_OUTER_BOUND('',#126,.T.) ;
#187=FACE_OUTER_BOUND('',#182,.T.) ;
#209=FACE_OUTER_BOUND('',#204,.T.) ;
#219=FACE_OUTER_BOUND('',#216,.T.) ;
#268=FACE_OUTER_BOUND('',#263,.T.) ;
#280=FACE_OUTER_BOUND('',#275,.T.) ;
#303=FACE_OUTER_BOUND('',#299,.T.) ;
#309=FACE_OUTER_BOUND('',#305,.T.) ;
#336=FACE_OUTER_BOUND('',#331,.T.) ;
#343=FACE_OUTER_BOUND('',#338,.T.) ;
#350=FACE_OUTER_BOUND('',#345,.T.) ;
#45=UNCERTAINTY_MEASURE_WITH_UNIT(LENGTH_MEASURE(0.005),#41,'distance_accuracy_value','CONFUSED CURVE UNCERTAINTY') ;
#60=LINE('Line',#57,#59) ;
#76=LINE('Line',#73,#75) ;
#247=LINE('Line',#244,#246) ;
#261=LINE('Line',#258,#260) ;
#319=LINE('Line',#316,#318) ;
#329=LINE('Line',#326,#328) ;
#2=MECHANICAL_CONTEXT(' ',#1,'mechanical') ;
#24=PERSONAL_ADDRESS(' ',' ',' ',' ',' ',' ',' ',' ',' ',' ',' ',' ',(#22),' ') ;
#96=PLANE('Plane',#95) ;
#111=PLANE('Plane',#110) ;
#215=PLANE('Plane',#214) ;
#43=PLANE_ANGLE_MEASURE_WITH_UNIT(PLANE_ANGLE_MEASURE(0.0174532925199),#42) ;
#7=PRODUCT_CATEGORY('part',$) ;
#9=PRODUCT_CATEGORY_RELATIONSHIP(' ',' ',#7,#8) ;
#6=PRODUCT_DEFINITION_FORMATION_WITH_SPECIFIED_SOURCE('',' ',#5,.NOT_KNOWN.) ;
#8=PRODUCT_RELATED_PRODUCT_CATEGORY('detail',$,(#5)) ;
#50=SHAPE_DEFINITION_REPRESENTATION(#40,#49) ;
#286=SPHERICAL_SURFACE('',#285,700.566666667) ;
#158=SURFACE_OF_REVOLUTION('Surface of Revolution',#149,#157) ;
#198=SURFACE_OF_REVOLUTION('Surface of Revolution',#189,#197) ;
#62=VERTEX_POINT('',#61) ;
#64=VERTEX_POINT('',#63) ;
#71=VERTEX_POINT('',#70) ;
#78=VERTEX_POINT('',#77) ;
#117=VERTEX_POINT('',#116) ;
#119=VERTEX_POINT('',#118) ;
#135=VERTEX_POINT('',#134) ;
#137=VERTEX_POINT('',#136) ;
#166=VERTEX_POINT('',#165) ;
#173=VERTEX_POINT('',#172) ;
#225=VERTEX_POINT('',#224) ;
#227=VERTEX_POINT('',#226) ;
#249=VERTEX_POINT('',#248) ;
#256=VERTEX_POINT('',#255) ;
#292=VERTEX_POINT('',#291) ;
#41=(LENGTH_UNIT()NAMED_UNIT(*)SI_UNIT(.MILLI.,.METRE.)) ;
#42=(NAMED_UNIT(*)PLANE_ANGLE_UNIT()SI_UNIT($,.RADIAN.)) ;
#44=(NAMED_UNIT(*)SI_UNIT($,.STERADIAN.)SOLID_ANGLE_UNIT()) ;
#46=(GEOMETRIC_REPRESENTATION_CONTEXT(3)GLOBAL_UNCERTAINTY_ASSIGNED_CONTEXT((#45))GLOBAL_UNIT_ASSIGNED_CONTEXT((#41,#42,#44))REPRESENTATION_CONTEXT(' ',' ')) ;
ENDSEC;
END-ISO-10303-21;
