ISO-10303-21;
HEADER;
/* Generated by software containing ST-Developer
 * from STEP Tools, Inc. (www.steptools.com) 
 */

FILE_DESCRIPTION(
/* description */ (''),
/* implementation_level */ '2;1');

FILE_NAME(
/* name */ 'C:/Users/Xeon/Desktop/Support  Arbre Moteur v11.step',
/* time_stamp */ '2020-08-25T08:52:18+02:00',
/* author */ (''),
/* organization */ (''),
/* preprocessor_version */ 'ST-DEVELOPER v18.1',
/* originating_system */ 'Autodesk Translation Framework v9.3.0.1241',
/* authorisation */ '');

FILE_SCHEMA (('AUTOMOTIVE_DESIGN { 1 0 10303 214 3 1 1 }'));
ENDSEC;

DATA;
#10=MECHANICAL_DESIGN_GEOMETRIC_PRESENTATION_REPRESENTATION('',(#13),#532);
#11=SHAPE_REPRESENTATION_RELATIONSHIP('SRR','None',#539,#12);
#12=ADVANCED_BREP_SHAPE_REPRESENTATION('',(#14),#531);
#13=STYLED_ITEM('',(#548),#14);
#14=MANIFOLD_SOLID_BREP('Corps1',#273);
#15=B_SPLINE_CURVE_WITH_KNOTS('',3,(#418,#419,#420,#421,#422,#423,#424,
#425,#426,#427,#428,#429,#430,#431,#432,#433,#434,#435),.UNSPECIFIED.,.F.,
 .F.,(4,2,2,2,2,2,2,2,4),(0.,0.0799111864803498,0.1598223729607,0.239731289169055,
0.31964020537741,0.399549121585766,0.479458037794121,0.559369224274471,
0.63928041075482),.UNSPECIFIED.);
#16=B_SPLINE_CURVE_WITH_KNOTS('',3,(#436,#437,#438,#439,#440,#441,#442,
#443,#444,#445,#446,#447,#448,#449,#450,#451,#452,#453),.UNSPECIFIED.,.F.,
 .F.,(4,2,2,2,2,2,2,2,4),(0.63928041075482,0.71919159723517,0.799102783715519,
0.879011699923875,0.95892061613223,1.03882953234059,1.11873844854894,1.19864963502929,
1.27856082150964),.UNSPECIFIED.);
#17=B_SPLINE_CURVE_WITH_KNOTS('',3,(#468,#469,#470,#471,#472,#473,#474,
#475,#476,#477,#478,#479,#480,#481,#482,#483,#484,#485,#486,#487,#488,#489,
#490,#491,#492,#493,#494,#495,#496,#497,#498,#499,#500,#501),
 .UNSPECIFIED.,.T.,.F.,(4,2,2,2,2,2,2,2,2,2,2,2,2,2,2,2,4),(0.,0.0798089387766057,
0.159617877553211,0.239426474928461,0.319235072303711,0.39904366967896,
0.47885226705421,0.558661205830816,0.638470144607422,0.718279083384027,
0.798088022160633,0.877896619535883,0.957705216911132,1.03751381428638,
1.11732241166163,1.19713135043824,1.27694028921484),.UNSPECIFIED.);
#18=CYLINDRICAL_SURFACE('',#294,12.5100005941931);
#19=CYLINDRICAL_SURFACE('',#300,2.117);
#20=CYLINDRICAL_SURFACE('',#302,20.0000002980232);
#21=CYLINDRICAL_SURFACE('',#304,3.3);
#22=CYLINDRICAL_SURFACE('',#306,3.3);
#23=CYLINDRICAL_SURFACE('',#308,3.3);
#24=CYLINDRICAL_SURFACE('',#310,3.3);
#25=CYLINDRICAL_SURFACE('',#312,34.0000005066395);
#26=LINE('',#404,#43);
#27=LINE('',#408,#44);
#28=LINE('',#409,#45);
#29=LINE('',#412,#46);
#30=LINE('',#415,#47);
#31=LINE('',#458,#48);
#32=LINE('',#460,#49);
#33=LINE('',#461,#50);
#34=LINE('',#463,#51);
#35=LINE('',#465,#52);
#36=LINE('',#502,#53);
#37=LINE('',#506,#54);
#38=LINE('',#511,#55);
#39=LINE('',#515,#56);
#40=LINE('',#519,#57);
#41=LINE('',#523,#58);
#42=LINE('',#527,#59);
#43=VECTOR('',#329,10.);
#44=VECTOR('',#332,10.);
#45=VECTOR('',#333,10.);
#46=VECTOR('',#336,10.);
#47=VECTOR('',#339,10.);
#48=VECTOR('',#344,10.);
#49=VECTOR('',#345,10.);
#50=VECTOR('',#346,10.);
#51=VECTOR('',#349,10.);
#52=VECTOR('',#352,10.);
#53=VECTOR('',#355,2.10000080987811);
#54=VECTOR('',#360,20.0000002980232);
#55=VECTOR('',#367,3.3);
#56=VECTOR('',#372,3.3);
#57=VECTOR('',#377,3.3);
#58=VECTOR('',#382,3.3);
#59=VECTOR('',#387,34.0000005066395);
#60=FACE_BOUND('',#88,.T.);
#61=FACE_BOUND('',#89,.T.);
#62=FACE_BOUND('',#90,.T.);
#63=FACE_BOUND('',#91,.T.);
#64=FACE_BOUND('',#92,.T.);
#65=FACE_BOUND('',#94,.T.);
#66=FACE_BOUND('',#96,.T.);
#67=FACE_BOUND('',#102,.T.);
#68=FACE_BOUND('',#109,.T.);
#69=FACE_BOUND('',#110,.T.);
#70=FACE_BOUND('',#111,.T.);
#71=FACE_BOUND('',#112,.T.);
#72=FACE_BOUND('',#113,.T.);
#73=FACE_OUTER_BOUND('',#87,.T.);
#74=FACE_OUTER_BOUND('',#93,.T.);
#75=FACE_OUTER_BOUND('',#95,.T.);
#76=FACE_OUTER_BOUND('',#97,.T.);
#77=FACE_OUTER_BOUND('',#98,.T.);
#78=FACE_OUTER_BOUND('',#99,.T.);
#79=FACE_OUTER_BOUND('',#100,.T.);
#80=FACE_OUTER_BOUND('',#101,.T.);
#81=FACE_OUTER_BOUND('',#103,.T.);
#82=FACE_OUTER_BOUND('',#104,.T.);
#83=FACE_OUTER_BOUND('',#105,.T.);
#84=FACE_OUTER_BOUND('',#106,.T.);
#85=FACE_OUTER_BOUND('',#107,.T.);
#86=FACE_OUTER_BOUND('',#108,.T.);
#87=EDGE_LOOP('',(#185));
#88=EDGE_LOOP('',(#186));
#89=EDGE_LOOP('',(#187));
#90=EDGE_LOOP('',(#188));
#91=EDGE_LOOP('',(#189));
#92=EDGE_LOOP('',(#190,#191,#192,#193));
#93=EDGE_LOOP('',(#194,#195,#196,#197));
#94=EDGE_LOOP('',(#198,#199));
#95=EDGE_LOOP('',(#200));
#96=EDGE_LOOP('',(#201,#202,#203,#204));
#97=EDGE_LOOP('',(#205,#206,#207,#208));
#98=EDGE_LOOP('',(#209,#210,#211,#212));
#99=EDGE_LOOP('',(#213,#214,#215,#216,#217));
#100=EDGE_LOOP('',(#218,#219,#220,#221));
#101=EDGE_LOOP('',(#222,#223,#224,#225));
#102=EDGE_LOOP('',(#226));
#103=EDGE_LOOP('',(#227,#228,#229,#230));
#104=EDGE_LOOP('',(#231,#232,#233,#234));
#105=EDGE_LOOP('',(#235,#236,#237,#238));
#106=EDGE_LOOP('',(#239,#240,#241,#242));
#107=EDGE_LOOP('',(#243,#244,#245,#246));
#108=EDGE_LOOP('',(#247));
#109=EDGE_LOOP('',(#248));
#110=EDGE_LOOP('',(#249));
#111=EDGE_LOOP('',(#250));
#112=EDGE_LOOP('',(#251));
#113=EDGE_LOOP('',(#252));
#114=CIRCLE('',#288,34.0000005066395);
#115=CIRCLE('',#289,3.3);
#116=CIRCLE('',#290,3.3);
#117=CIRCLE('',#291,3.3);
#118=CIRCLE('',#292,3.3);
#119=CIRCLE('',#293,12.5100005941931);
#120=CIRCLE('',#295,12.5100005941931);
#121=CIRCLE('',#297,20.0000002980232);
#122=CIRCLE('',#303,20.0000002980232);
#123=CIRCLE('',#305,3.3);
#124=CIRCLE('',#307,3.3);
#125=CIRCLE('',#309,3.3);
#126=CIRCLE('',#311,3.3);
#127=CIRCLE('',#313,34.0000005066395);
#128=VERTEX_POINT('',#392);
#129=VERTEX_POINT('',#394);
#130=VERTEX_POINT('',#396);
#131=VERTEX_POINT('',#398);
#132=VERTEX_POINT('',#400);
#133=VERTEX_POINT('',#402);
#134=VERTEX_POINT('',#403);
#135=VERTEX_POINT('',#405);
#136=VERTEX_POINT('',#407);
#137=VERTEX_POINT('',#411);
#138=VERTEX_POINT('',#413);
#139=VERTEX_POINT('',#416);
#140=VERTEX_POINT('',#417);
#141=VERTEX_POINT('',#455);
#142=VERTEX_POINT('',#457);
#143=VERTEX_POINT('',#459);
#144=VERTEX_POINT('',#467);
#145=VERTEX_POINT('',#505);
#146=VERTEX_POINT('',#509);
#147=VERTEX_POINT('',#513);
#148=VERTEX_POINT('',#517);
#149=VERTEX_POINT('',#521);
#150=VERTEX_POINT('',#525);
#151=EDGE_CURVE('',#128,#128,#114,.T.);
#152=EDGE_CURVE('',#129,#129,#115,.T.);
#153=EDGE_CURVE('',#130,#130,#116,.T.);
#154=EDGE_CURVE('',#131,#131,#117,.T.);
#155=EDGE_CURVE('',#132,#132,#118,.T.);
#156=EDGE_CURVE('',#133,#134,#26,.T.);
#157=EDGE_CURVE('',#134,#135,#119,.T.);
#158=EDGE_CURVE('',#135,#136,#27,.T.);
#159=EDGE_CURVE('',#136,#133,#28,.T.);
#160=EDGE_CURVE('',#134,#137,#29,.T.);
#161=EDGE_CURVE('',#138,#137,#120,.T.);
#162=EDGE_CURVE('',#138,#135,#30,.T.);
#163=EDGE_CURVE('',#139,#140,#15,.T.);
#164=EDGE_CURVE('',#140,#139,#16,.T.);
#165=EDGE_CURVE('',#141,#141,#121,.T.);
#166=EDGE_CURVE('',#137,#142,#31,.T.);
#167=EDGE_CURVE('',#142,#143,#32,.T.);
#168=EDGE_CURVE('',#143,#138,#33,.T.);
#169=EDGE_CURVE('',#142,#133,#34,.T.);
#170=EDGE_CURVE('',#136,#143,#35,.T.);
#171=EDGE_CURVE('',#144,#144,#17,.T.);
#172=EDGE_CURVE('',#144,#140,#36,.T.);
#173=EDGE_CURVE('',#141,#145,#37,.T.);
#174=EDGE_CURVE('',#145,#145,#122,.T.);
#175=EDGE_CURVE('',#146,#146,#123,.T.);
#176=EDGE_CURVE('',#146,#132,#38,.T.);
#177=EDGE_CURVE('',#147,#147,#124,.T.);
#178=EDGE_CURVE('',#147,#131,#39,.T.);
#179=EDGE_CURVE('',#148,#148,#125,.T.);
#180=EDGE_CURVE('',#148,#130,#40,.T.);
#181=EDGE_CURVE('',#149,#149,#126,.T.);
#182=EDGE_CURVE('',#149,#129,#41,.T.);
#183=EDGE_CURVE('',#150,#150,#127,.T.);
#184=EDGE_CURVE('',#150,#128,#42,.T.);
#185=ORIENTED_EDGE('',*,*,#151,.F.);
#186=ORIENTED_EDGE('',*,*,#152,.T.);
#187=ORIENTED_EDGE('',*,*,#153,.T.);
#188=ORIENTED_EDGE('',*,*,#154,.T.);
#189=ORIENTED_EDGE('',*,*,#155,.T.);
#190=ORIENTED_EDGE('',*,*,#156,.T.);
#191=ORIENTED_EDGE('',*,*,#157,.T.);
#192=ORIENTED_EDGE('',*,*,#158,.T.);
#193=ORIENTED_EDGE('',*,*,#159,.T.);
#194=ORIENTED_EDGE('',*,*,#160,.T.);
#195=ORIENTED_EDGE('',*,*,#161,.F.);
#196=ORIENTED_EDGE('',*,*,#162,.T.);
#197=ORIENTED_EDGE('',*,*,#157,.F.);
#198=ORIENTED_EDGE('',*,*,#163,.F.);
#199=ORIENTED_EDGE('',*,*,#164,.F.);
#200=ORIENTED_EDGE('',*,*,#165,.T.);
#201=ORIENTED_EDGE('',*,*,#166,.T.);
#202=ORIENTED_EDGE('',*,*,#167,.T.);
#203=ORIENTED_EDGE('',*,*,#168,.T.);
#204=ORIENTED_EDGE('',*,*,#161,.T.);
#205=ORIENTED_EDGE('',*,*,#156,.F.);
#206=ORIENTED_EDGE('',*,*,#169,.F.);
#207=ORIENTED_EDGE('',*,*,#166,.F.);
#208=ORIENTED_EDGE('',*,*,#160,.F.);
#209=ORIENTED_EDGE('',*,*,#168,.F.);
#210=ORIENTED_EDGE('',*,*,#170,.F.);
#211=ORIENTED_EDGE('',*,*,#158,.F.);
#212=ORIENTED_EDGE('',*,*,#162,.F.);
#213=ORIENTED_EDGE('',*,*,#171,.F.);
#214=ORIENTED_EDGE('',*,*,#172,.T.);
#215=ORIENTED_EDGE('',*,*,#164,.T.);
#216=ORIENTED_EDGE('',*,*,#163,.T.);
#217=ORIENTED_EDGE('',*,*,#172,.F.);
#218=ORIENTED_EDGE('',*,*,#167,.F.);
#219=ORIENTED_EDGE('',*,*,#169,.T.);
#220=ORIENTED_EDGE('',*,*,#159,.F.);
#221=ORIENTED_EDGE('',*,*,#170,.T.);
#222=ORIENTED_EDGE('',*,*,#165,.F.);
#223=ORIENTED_EDGE('',*,*,#173,.T.);
#224=ORIENTED_EDGE('',*,*,#174,.F.);
#225=ORIENTED_EDGE('',*,*,#173,.F.);
#226=ORIENTED_EDGE('',*,*,#171,.T.);
#227=ORIENTED_EDGE('',*,*,#175,.F.);
#228=ORIENTED_EDGE('',*,*,#176,.T.);
#229=ORIENTED_EDGE('',*,*,#155,.F.);
#230=ORIENTED_EDGE('',*,*,#176,.F.);
#231=ORIENTED_EDGE('',*,*,#177,.F.);
#232=ORIENTED_EDGE('',*,*,#178,.T.);
#233=ORIENTED_EDGE('',*,*,#154,.F.);
#234=ORIENTED_EDGE('',*,*,#178,.F.);
#235=ORIENTED_EDGE('',*,*,#179,.F.);
#236=ORIENTED_EDGE('',*,*,#180,.T.);
#237=ORIENTED_EDGE('',*,*,#153,.F.);
#238=ORIENTED_EDGE('',*,*,#180,.F.);
#239=ORIENTED_EDGE('',*,*,#181,.F.);
#240=ORIENTED_EDGE('',*,*,#182,.T.);
#241=ORIENTED_EDGE('',*,*,#152,.F.);
#242=ORIENTED_EDGE('',*,*,#182,.F.);
#243=ORIENTED_EDGE('',*,*,#183,.F.);
#244=ORIENTED_EDGE('',*,*,#184,.T.);
#245=ORIENTED_EDGE('',*,*,#151,.T.);
#246=ORIENTED_EDGE('',*,*,#184,.F.);
#247=ORIENTED_EDGE('',*,*,#183,.T.);
#248=ORIENTED_EDGE('',*,*,#174,.T.);
#249=ORIENTED_EDGE('',*,*,#175,.T.);
#250=ORIENTED_EDGE('',*,*,#177,.T.);
#251=ORIENTED_EDGE('',*,*,#179,.T.);
#252=ORIENTED_EDGE('',*,*,#181,.T.);
#253=PLANE('',#287);
#254=PLANE('',#296);
#255=PLANE('',#298);
#256=PLANE('',#299);
#257=PLANE('',#301);
#258=PLANE('',#314);
#259=ADVANCED_FACE('',(#73,#60,#61,#62,#63,#64),#253,.F.);
#260=ADVANCED_FACE('',(#74,#65),#18,.F.);
#261=ADVANCED_FACE('',(#75,#66),#254,.T.);
#262=ADVANCED_FACE('',(#76),#255,.F.);
#263=ADVANCED_FACE('',(#77),#256,.F.);
#264=ADVANCED_FACE('',(#78),#19,.F.);
#265=ADVANCED_FACE('',(#79),#257,.F.);
#266=ADVANCED_FACE('',(#80,#67),#20,.T.);
#267=ADVANCED_FACE('',(#81),#21,.F.);
#268=ADVANCED_FACE('',(#82),#22,.F.);
#269=ADVANCED_FACE('',(#83),#23,.F.);
#270=ADVANCED_FACE('',(#84),#24,.F.);
#271=ADVANCED_FACE('',(#85),#25,.T.);
#272=ADVANCED_FACE('',(#86,#68,#69,#70,#71,#72),#258,.T.);
#273=CLOSED_SHELL('',(#259,#260,#261,#262,#263,#264,#265,#266,#267,#268,
#269,#270,#271,#272));
#274=DERIVED_UNIT_ELEMENT(#276,1.);
#275=DERIVED_UNIT_ELEMENT(#534,3.);
#276=(
MASS_UNIT()
NAMED_UNIT(*)
SI_UNIT(.KILO.,.GRAM.)
);
#277=DERIVED_UNIT((#274,#275));
#278=MEASURE_REPRESENTATION_ITEM('density measure',
POSITIVE_RATIO_MEASURE(7850.),#277);
#279=PROPERTY_DEFINITION_REPRESENTATION(#284,#281);
#280=PROPERTY_DEFINITION_REPRESENTATION(#285,#282);
#281=REPRESENTATION('material name',(#283),#531);
#282=REPRESENTATION('density',(#278),#531);
#283=DESCRIPTIVE_REPRESENTATION_ITEM('Acier','Acier');
#284=PROPERTY_DEFINITION('material property','material name',#541);
#285=PROPERTY_DEFINITION('material property','density of part',#541);
#286=AXIS2_PLACEMENT_3D('placement',#390,#315,#316);
#287=AXIS2_PLACEMENT_3D('',#391,#317,#318);
#288=AXIS2_PLACEMENT_3D('',#393,#319,#320);
#289=AXIS2_PLACEMENT_3D('',#395,#321,#322);
#290=AXIS2_PLACEMENT_3D('',#397,#323,#324);
#291=AXIS2_PLACEMENT_3D('',#399,#325,#326);
#292=AXIS2_PLACEMENT_3D('',#401,#327,#328);
#293=AXIS2_PLACEMENT_3D('',#406,#330,#331);
#294=AXIS2_PLACEMENT_3D('',#410,#334,#335);
#295=AXIS2_PLACEMENT_3D('',#414,#337,#338);
#296=AXIS2_PLACEMENT_3D('',#454,#340,#341);
#297=AXIS2_PLACEMENT_3D('',#456,#342,#343);
#298=AXIS2_PLACEMENT_3D('',#462,#347,#348);
#299=AXIS2_PLACEMENT_3D('',#464,#350,#351);
#300=AXIS2_PLACEMENT_3D('',#466,#353,#354);
#301=AXIS2_PLACEMENT_3D('',#503,#356,#357);
#302=AXIS2_PLACEMENT_3D('',#504,#358,#359);
#303=AXIS2_PLACEMENT_3D('',#507,#361,#362);
#304=AXIS2_PLACEMENT_3D('',#508,#363,#364);
#305=AXIS2_PLACEMENT_3D('',#510,#365,#366);
#306=AXIS2_PLACEMENT_3D('',#512,#368,#369);
#307=AXIS2_PLACEMENT_3D('',#514,#370,#371);
#308=AXIS2_PLACEMENT_3D('',#516,#373,#374);
#309=AXIS2_PLACEMENT_3D('',#518,#375,#376);
#310=AXIS2_PLACEMENT_3D('',#520,#378,#379);
#311=AXIS2_PLACEMENT_3D('',#522,#380,#381);
#312=AXIS2_PLACEMENT_3D('',#524,#383,#384);
#313=AXIS2_PLACEMENT_3D('',#526,#385,#386);
#314=AXIS2_PLACEMENT_3D('',#528,#388,#389);
#315=DIRECTION('axis',(0.,0.,1.));
#316=DIRECTION('refdir',(1.,0.,0.));
#317=DIRECTION('center_axis',(0.,0.,1.));
#318=DIRECTION('ref_axis',(-2.22044604925031E-16,1.,0.));
#319=DIRECTION('center_axis',(0.,0.,1.));
#320=DIRECTION('ref_axis',(-1.30614471539005E-16,1.,0.));
#321=DIRECTION('center_axis',(0.,0.,1.));
#322=DIRECTION('ref_axis',(-1.6821560979169E-16,1.,0.));
#323=DIRECTION('center_axis',(0.,0.,1.));
#324=DIRECTION('ref_axis',(-1.6821560979169E-16,1.,0.));
#325=DIRECTION('center_axis',(0.,0.,1.));
#326=DIRECTION('ref_axis',(-1.6821560979169E-16,1.,0.));
#327=DIRECTION('center_axis',(0.,0.,1.));
#328=DIRECTION('ref_axis',(-1.6821560979169E-16,1.,0.));
#329=DIRECTION('',(0.707106781186566,-0.707106781186529,0.));
#330=DIRECTION('center_axis',(0.,0.,1.));
#331=DIRECTION('ref_axis',(-1.,0.,0.));
#332=DIRECTION('',(-0.707106781186559,0.707106781186536,0.));
#333=DIRECTION('',(-0.707106781186548,-0.707106781186548,0.));
#334=DIRECTION('center_axis',(0.,0.,-1.));
#335=DIRECTION('ref_axis',(0.707106781186548,-0.707106781186547,0.));
#336=DIRECTION('',(0.,0.,1.));
#337=DIRECTION('center_axis',(0.,0.,-1.));
#338=DIRECTION('ref_axis',(-1.,0.,0.));
#339=DIRECTION('',(0.,0.,-1.));
#340=DIRECTION('center_axis',(0.,0.,1.));
#341=DIRECTION('ref_axis',(2.22044604925031E-16,-1.,0.));
#342=DIRECTION('center_axis',(0.,0.,1.));
#343=DIRECTION('ref_axis',(2.22044601616309E-16,-1.,0.));
#344=DIRECTION('',(-0.707106781186566,0.707106781186529,0.));
#345=DIRECTION('',(0.707106781186548,0.707106781186548,0.));
#346=DIRECTION('',(0.707106781186559,-0.707106781186536,0.));
#347=DIRECTION('center_axis',(-0.707106781186548,-0.707106781186548,0.));
#348=DIRECTION('ref_axis',(0.,0.,1.));
#349=DIRECTION('',(0.,0.,-1.));
#350=DIRECTION('center_axis',(0.707106781186548,0.707106781186548,0.));
#351=DIRECTION('ref_axis',(0.,0.,-1.));
#352=DIRECTION('',(0.,0.,1.));
#353=DIRECTION('center_axis',(-0.707106781186547,-0.707106781186548,0.));
#354=DIRECTION('ref_axis',(-0.707106781186547,0.707106781186547,0.));
#355=DIRECTION('',(-0.707106781186547,-0.707106781186548,0.));
#356=DIRECTION('center_axis',(-0.707106781186548,0.707106781186547,0.));
#357=DIRECTION('ref_axis',(0.,0.,1.));
#358=DIRECTION('center_axis',(0.,0.,1.));
#359=DIRECTION('ref_axis',(2.22044601616309E-16,-1.,0.));
#360=DIRECTION('',(0.,0.,-1.));
#361=DIRECTION('center_axis',(0.,0.,-1.));
#362=DIRECTION('ref_axis',(2.22044601616309E-16,-1.,0.));
#363=DIRECTION('center_axis',(0.,0.,-1.));
#364=DIRECTION('ref_axis',(-1.6821560979169E-16,1.,0.));
#365=DIRECTION('center_axis',(0.,0.,-1.));
#366=DIRECTION('ref_axis',(-1.6821560979169E-16,1.,0.));
#367=DIRECTION('',(0.,0.,-1.));
#368=DIRECTION('center_axis',(0.,0.,-1.));
#369=DIRECTION('ref_axis',(-1.6821560979169E-16,1.,0.));
#370=DIRECTION('center_axis',(0.,0.,-1.));
#371=DIRECTION('ref_axis',(-1.6821560979169E-16,1.,0.));
#372=DIRECTION('',(0.,0.,-1.));
#373=DIRECTION('center_axis',(0.,0.,-1.));
#374=DIRECTION('ref_axis',(-1.6821560979169E-16,1.,0.));
#375=DIRECTION('center_axis',(0.,0.,-1.));
#376=DIRECTION('ref_axis',(-1.6821560979169E-16,1.,0.));
#377=DIRECTION('',(0.,0.,-1.));
#378=DIRECTION('center_axis',(0.,0.,-1.));
#379=DIRECTION('ref_axis',(-1.6821560979169E-16,1.,0.));
#380=DIRECTION('center_axis',(0.,0.,-1.));
#381=DIRECTION('ref_axis',(-1.6821560979169E-16,1.,0.));
#382=DIRECTION('',(0.,0.,-1.));
#383=DIRECTION('center_axis',(0.,0.,1.));
#384=DIRECTION('ref_axis',(-1.30614471539005E-16,1.,0.));
#385=DIRECTION('center_axis',(0.,0.,1.));
#386=DIRECTION('ref_axis',(-1.30614471539005E-16,1.,0.));
#387=DIRECTION('',(0.,0.,-1.));
#388=DIRECTION('center_axis',(0.,0.,1.));
#389=DIRECTION('ref_axis',(-2.22044604925031E-16,1.,0.));
#390=CARTESIAN_POINT('',(0.,0.,0.));
#391=CARTESIAN_POINT('Origin',(0.,0.,0.));
#392=CARTESIAN_POINT('',(1.33226762955019E-14,-34.0000005066395,0.));
#393=CARTESIAN_POINT('Origin',(0.,0.,0.));
#394=CARTESIAN_POINT('',(-27.4999993853271,-3.3,0.));
#395=CARTESIAN_POINT('Origin',(-27.4999993853271,-4.44089209850063E-15,
0.));
#396=CARTESIAN_POINT('',(27.5000004097819,-3.3,0.));
#397=CARTESIAN_POINT('Origin',(27.5000004097819,4.44089209850063E-15,0.));
#398=CARTESIAN_POINT('',(-4.28991402990667E-15,24.2000004097819,0.));
#399=CARTESIAN_POINT('Origin',(-4.44089209850063E-15,27.5000004097819,0.));
#400=CARTESIAN_POINT('',(4.59187016709458E-15,-30.8000004097819,0.));
#401=CARTESIAN_POINT('Origin',(4.44089209850063E-15,-27.5000004097819,0.));
#402=CARTESIAN_POINT('',(-14.01502737918,8.32954638158666,-2.22044604925031E-14));
#403=CARTESIAN_POINT('',(-11.2194274268045,5.53394642921118,-1.77635683940025E-14));
#404=CARTESIAN_POINT('',(-7.03347697145891,1.34799597386581,0.));
#405=CARTESIAN_POINT('',(-5.53394642921118,11.2194274268045,0.));
#406=CARTESIAN_POINT('Origin',(3.60822483003176E-15,2.63677968348475E-15,
0.));
#407=CARTESIAN_POINT('',(-8.32954638158666,14.01502737918,-2.22044604925031E-14));
#408=CARTESIAN_POINT('',(-1.34799597386569,7.03347697145915,0.));
#409=CARTESIAN_POINT('',(-12.4913034232049,9.85327033756174,2.22044604925031E-15));
#410=CARTESIAN_POINT('Origin',(3.60822483003176E-15,2.63677968348475E-15,
38.));
#411=CARTESIAN_POINT('',(-11.2194274268045,5.53394642921117,38.));
#412=CARTESIAN_POINT('',(-11.2194274268045,5.53394642921117,38.));
#413=CARTESIAN_POINT('',(-5.53394642921118,11.2194274268045,38.));
#414=CARTESIAN_POINT('Origin',(3.60822483003176E-15,2.63677968348475E-15,
38.));
#415=CARTESIAN_POINT('',(-5.53394642921118,11.2194274268045,38.));
#416=CARTESIAN_POINT('',(7.22138121326367,10.2152713248075,23.0000003427267));
#417=CARTESIAN_POINT('',(10.2152713248075,7.22138121326368,23.0000003427267));
#418=CARTESIAN_POINT('Ctrl Pts',(7.22138121326367,10.2152713248075,23.0000003427267));
#419=CARTESIAN_POINT('Ctrl Pts',(7.22138121326367,10.2152713248075,22.7336297211255));
#420=CARTESIAN_POINT('Ctrl Pts',(7.2658331519289,10.1842899812378,22.4498622711652));
#421=CARTESIAN_POINT('Ctrl Pts',(7.44290882079964,10.0556054988911,21.9284336203178));
#422=CARTESIAN_POINT('Ctrl Pts',(7.57514938642336,9.95755788893697,21.6907274388667));
#423=CARTESIAN_POINT('Ctrl Pts',(7.87254225131228,9.72414128903824,21.3153884667974));
#424=CARTESIAN_POINT('Ctrl Pts',(8.05761654161387,9.57304503907,21.1525459543729));
#425=CARTESIAN_POINT('Ctrl Pts',(8.45027668536,9.22828259154373,20.9363378422493));
#426=CARTESIAN_POINT('Ctrl Pts',(8.65755913104104,9.03425337456235,20.8830003427267));
#427=CARTESIAN_POINT('Ctrl Pts',(9.03425337456235,8.65755913104104,20.8830003427267));
#428=CARTESIAN_POINT('Ctrl Pts',(9.22828259154373,8.45027668536,20.9363378422493));
#429=CARTESIAN_POINT('Ctrl Pts',(9.57304503906999,8.05761654161387,21.1525459543729));
#430=CARTESIAN_POINT('Ctrl Pts',(9.72414128903823,7.87254225131228,21.3153884667974));
#431=CARTESIAN_POINT('Ctrl Pts',(9.95755788893697,7.57514938642336,21.6907274388667));
#432=CARTESIAN_POINT('Ctrl Pts',(10.0556054988911,7.44290882079965,21.9284336203179));
#433=CARTESIAN_POINT('Ctrl Pts',(10.1842899812378,7.26583315192891,22.4498622711652));
#434=CARTESIAN_POINT('Ctrl Pts',(10.2152713248075,7.22138121326368,22.7336297211255));
#435=CARTESIAN_POINT('Ctrl Pts',(10.2152713248075,7.22138121326368,23.0000003427267));
#436=CARTESIAN_POINT('Ctrl Pts',(10.2152713248075,7.22138121326368,23.0000003427267));
#437=CARTESIAN_POINT('Ctrl Pts',(10.2152713248075,7.22138121326368,23.2663709643279));
#438=CARTESIAN_POINT('Ctrl Pts',(10.1842899812378,7.2658331519289,23.5501384142882));
#439=CARTESIAN_POINT('Ctrl Pts',(10.0556054988911,7.44290882079964,24.0715670651356));
#440=CARTESIAN_POINT('Ctrl Pts',(9.95755788893697,7.57514938642336,24.3092732465867));
#441=CARTESIAN_POINT('Ctrl Pts',(9.72414128903824,7.87254225131228,24.684612218656));
#442=CARTESIAN_POINT('Ctrl Pts',(9.57304503907,8.05761654161387,24.8474547310805));
#443=CARTESIAN_POINT('Ctrl Pts',(9.22828259154373,8.45027668536,25.0636628432041));
#444=CARTESIAN_POINT('Ctrl Pts',(9.03425337456235,8.65755913104104,25.1170003427267));
#445=CARTESIAN_POINT('Ctrl Pts',(8.65755913104104,9.03425337456235,25.1170003427267));
#446=CARTESIAN_POINT('Ctrl Pts',(8.45027668536,9.22828259154373,25.0636628432041));
#447=CARTESIAN_POINT('Ctrl Pts',(8.05761654161387,9.57304503907,24.8474547310805));
#448=CARTESIAN_POINT('Ctrl Pts',(7.87254225131228,9.72414128903824,24.684612218656));
#449=CARTESIAN_POINT('Ctrl Pts',(7.57514938642336,9.95755788893697,24.3092732465867));
#450=CARTESIAN_POINT('Ctrl Pts',(7.44290882079964,10.0556054988911,24.0715670651356));
#451=CARTESIAN_POINT('Ctrl Pts',(7.2658331519289,10.1842899812378,23.5501384142882));
#452=CARTESIAN_POINT('Ctrl Pts',(7.22138121326367,10.2152713248075,23.2663709643279));
#453=CARTESIAN_POINT('Ctrl Pts',(7.22138121326367,10.2152713248075,23.0000003427267));
#454=CARTESIAN_POINT('Origin',(0.,0.,38.));
#455=CARTESIAN_POINT('',(-6.66133814775094E-15,20.0000002980232,38.));
#456=CARTESIAN_POINT('Origin',(0.,0.,38.));
#457=CARTESIAN_POINT('',(-14.01502737918,8.32954638158666,38.));
#458=CARTESIAN_POINT('',(-7.03347697145891,1.34799597386581,38.));
#459=CARTESIAN_POINT('',(-8.32954638158666,14.01502737918,38.));
#460=CARTESIAN_POINT('',(-12.4913034232049,9.85327033756174,38.));
#461=CARTESIAN_POINT('',(-1.34799597386569,7.03347697145915,38.));
#462=CARTESIAN_POINT('Origin',(-11.278721647815,5.59324065022166,38.));
#463=CARTESIAN_POINT('',(-14.01502737918,8.32954638158666,38.));
#464=CARTESIAN_POINT('Origin',(-7.8649772263471,13.5504582239404,38.));
#465=CARTESIAN_POINT('',(-8.32954638158666,14.01502737918,38.));
#466=CARTESIAN_POINT('Origin',(21.9203088680838,21.9203088680838,23.0000003427267));
#467=CARTESIAN_POINT('',(15.5596319064582,12.5657417949144,23.0000003427267));
#468=CARTESIAN_POINT('Ctrl Pts',(15.5596319064582,12.5657417949144,23.0000003427267));
#469=CARTESIAN_POINT('Ctrl Pts',(15.5596319064582,12.5657417949144,23.2660301386487));
#470=CARTESIAN_POINT('Ctrl Pts',(15.5261724292227,12.6075283139356,23.5496550222225));
#471=CARTESIAN_POINT('Ctrl Pts',(15.3883750489929,12.7753557204067,24.0711805628607));
#472=CARTESIAN_POINT('Ctrl Pts',(15.2838254715689,12.9011695670613,24.3090983069591));
#473=CARTESIAN_POINT('Ctrl Pts',(15.0381096371726,13.1867644052751,24.6847916864784));
#474=CARTESIAN_POINT('Ctrl Pts',(14.880482224979,13.3656039906768,24.847683853627));
#475=CARTESIAN_POINT('Ctrl Pts',(14.5266625118388,13.7493344402245,25.0637936789468));
#476=CARTESIAN_POINT('Ctrl Pts',(14.3302465024686,13.9540251664618,25.1170003427267));
#477=CARTESIAN_POINT('Ctrl Pts',(13.9540251664618,14.3302465024686,25.1170003427267));
#478=CARTESIAN_POINT('Ctrl Pts',(13.7493344402245,14.5266625118388,25.0637936789468));
#479=CARTESIAN_POINT('Ctrl Pts',(13.3656039906768,14.880482224979,24.847683853627));
#480=CARTESIAN_POINT('Ctrl Pts',(13.1867644052751,15.0381096371726,24.6847916864784));
#481=CARTESIAN_POINT('Ctrl Pts',(12.9011695670613,15.2838254715689,24.3090983069591));
#482=CARTESIAN_POINT('Ctrl Pts',(12.7753557204067,15.3883750489929,24.0711805628607));
#483=CARTESIAN_POINT('Ctrl Pts',(12.6075283139356,15.5261724292227,23.5496550222224));
#484=CARTESIAN_POINT('Ctrl Pts',(12.5657417949143,15.5596319064582,23.2660301386487));
#485=CARTESIAN_POINT('Ctrl Pts',(12.5657417949143,15.5596319064582,22.7339705468047));
#486=CARTESIAN_POINT('Ctrl Pts',(12.6075283139356,15.5261724292227,22.450345663231));
#487=CARTESIAN_POINT('Ctrl Pts',(12.7753557204067,15.3883750489929,21.9288201225928));
#488=CARTESIAN_POINT('Ctrl Pts',(12.9011695670613,15.2838254715689,21.6909023784944));
#489=CARTESIAN_POINT('Ctrl Pts',(13.1867644052751,15.0381096371726,21.315208998975));
#490=CARTESIAN_POINT('Ctrl Pts',(13.3656039906768,14.880482224979,21.1523168318265));
#491=CARTESIAN_POINT('Ctrl Pts',(13.7493344402245,14.5266625118388,20.9362070065066));
#492=CARTESIAN_POINT('Ctrl Pts',(13.9540251664618,14.3302465024686,20.8830003427267));
#493=CARTESIAN_POINT('Ctrl Pts',(14.3302465024686,13.9540251664618,20.8830003427267));
#494=CARTESIAN_POINT('Ctrl Pts',(14.5266625118388,13.7493344402245,20.9362070065066));
#495=CARTESIAN_POINT('Ctrl Pts',(14.880482224979,13.3656039906768,21.1523168318265));
#496=CARTESIAN_POINT('Ctrl Pts',(15.0381096371726,13.1867644052751,21.315208998975));
#497=CARTESIAN_POINT('Ctrl Pts',(15.2838254715689,12.9011695670613,21.6909023784943));
#498=CARTESIAN_POINT('Ctrl Pts',(15.3883750489929,12.7753557204067,21.9288201225927));
#499=CARTESIAN_POINT('Ctrl Pts',(15.5261724292227,12.6075283139356,22.450345663231));
#500=CARTESIAN_POINT('Ctrl Pts',(15.5596319064582,12.5657417949143,22.7339705468047));
#501=CARTESIAN_POINT('Ctrl Pts',(15.5596319064582,12.5657417949143,23.0000003427267));
#502=CARTESIAN_POINT('',(23.4172539238557,20.4233638123119,23.0000003427267));
#503=CARTESIAN_POINT('Origin',(-13.8103199660265,8.53425379474016,38.));
#504=CARTESIAN_POINT('Origin',(0.,0.,8.));
#505=CARTESIAN_POINT('',(-6.66133814775094E-15,20.0000002980232,8.));
#506=CARTESIAN_POINT('',(-6.89018573329265E-15,20.0000002980232,8.));
#507=CARTESIAN_POINT('Origin',(0.,0.,8.));
#508=CARTESIAN_POINT('Origin',(4.44089209850063E-15,-27.5000004097819,4.));
#509=CARTESIAN_POINT('',(4.59187016709458E-15,-30.8000004097819,8.));
#510=CARTESIAN_POINT('Origin',(4.44089209850063E-15,-27.5000004097819,8.));
#511=CARTESIAN_POINT('',(4.59187016709458E-15,-30.8000004097819,4.));
#512=CARTESIAN_POINT('Origin',(-4.44089209850063E-15,27.5000004097819,4.));
#513=CARTESIAN_POINT('',(-4.28991402990667E-15,24.2000004097819,8.));
#514=CARTESIAN_POINT('Origin',(-4.44089209850063E-15,27.5000004097819,8.));
#515=CARTESIAN_POINT('',(-4.28991402990667E-15,24.2000004097819,4.));
#516=CARTESIAN_POINT('Origin',(27.5000004097819,4.44089209850063E-15,4.));
#517=CARTESIAN_POINT('',(27.5000004097819,-3.3,8.));
#518=CARTESIAN_POINT('Origin',(27.5000004097819,4.44089209850063E-15,8.));
#519=CARTESIAN_POINT('',(27.5000004097819,-3.3,4.));
#520=CARTESIAN_POINT('Origin',(-27.4999993853271,-4.44089209850063E-15,
4.));
#521=CARTESIAN_POINT('',(-27.4999993853271,-3.3,8.));
#522=CARTESIAN_POINT('Origin',(-27.4999993853271,-4.44089209850063E-15,
8.));
#523=CARTESIAN_POINT('',(-27.4999993853271,-3.3,4.));
#524=CARTESIAN_POINT('Origin',(0.,0.,0.));
#525=CARTESIAN_POINT('',(1.33226762955019E-14,-34.0000005066395,8.));
#526=CARTESIAN_POINT('Origin',(0.,0.,8.));
#527=CARTESIAN_POINT('',(8.60469127764707E-15,-34.0000005066395,0.));
#528=CARTESIAN_POINT('Origin',(0.,0.,8.));
#529=UNCERTAINTY_MEASURE_WITH_UNIT(LENGTH_MEASURE(0.01),#533,
'DISTANCE_ACCURACY_VALUE',
'Maximum model space distance between geometric entities at asserted c
onnectivities');
#530=UNCERTAINTY_MEASURE_WITH_UNIT(LENGTH_MEASURE(0.01),#533,
'DISTANCE_ACCURACY_VALUE',
'Maximum model space distance between geometric entities at asserted c
onnectivities');
#531=(
GEOMETRIC_REPRESENTATION_CONTEXT(3)
GLOBAL_UNCERTAINTY_ASSIGNED_CONTEXT((#529))
GLOBAL_UNIT_ASSIGNED_CONTEXT((#533,#535,#536))
REPRESENTATION_CONTEXT('','3D')
);
#532=(
GEOMETRIC_REPRESENTATION_CONTEXT(3)
GLOBAL_UNCERTAINTY_ASSIGNED_CONTEXT((#530))
GLOBAL_UNIT_ASSIGNED_CONTEXT((#533,#535,#536))
REPRESENTATION_CONTEXT('','3D')
);
#533=(
LENGTH_UNIT()
NAMED_UNIT(*)
SI_UNIT(.MILLI.,.METRE.)
);
#534=(
LENGTH_UNIT()
NAMED_UNIT(*)
SI_UNIT($,.METRE.)
);
#535=(
NAMED_UNIT(*)
PLANE_ANGLE_UNIT()
SI_UNIT($,.RADIAN.)
);
#536=(
NAMED_UNIT(*)
SI_UNIT($,.STERADIAN.)
SOLID_ANGLE_UNIT()
);
#537=SHAPE_DEFINITION_REPRESENTATION(#538,#539);
#538=PRODUCT_DEFINITION_SHAPE('',$,#541);
#539=SHAPE_REPRESENTATION('',(#286),#531);
#540=PRODUCT_DEFINITION_CONTEXT('part definition',#545,'design');
#541=PRODUCT_DEFINITION('Support  Arbre Moteur',
'Support  Arbre Moteur v11',#542,#540);
#542=PRODUCT_DEFINITION_FORMATION('',$,#547);
#543=PRODUCT_RELATED_PRODUCT_CATEGORY('Support  Arbre Moteur v11',
'Support  Arbre Moteur v11',(#547));
#544=APPLICATION_PROTOCOL_DEFINITION('international standard',
'automotive_design',2009,#545);
#545=APPLICATION_CONTEXT(
'Core Data for Automotive Mechanical Design Process');
#546=PRODUCT_CONTEXT('part definition',#545,'mechanical');
#547=PRODUCT('Support  Arbre Moteur','Support  Arbre Moteur v11',$,(#546));
#548=PRESENTATION_STYLE_ASSIGNMENT((#549));
#549=SURFACE_STYLE_USAGE(.BOTH.,#550);
#550=SURFACE_SIDE_STYLE('',(#551));
#551=SURFACE_STYLE_FILL_AREA(#552);
#552=FILL_AREA_STYLE('Acier - Satin\X\E9',(#553));
#553=FILL_AREA_STYLE_COLOUR('Acier - Satin\X\E9',#554);
#554=COLOUR_RGB('Acier - Satin\X\E9',0.627450980392157,0.627450980392157,
0.627450980392157);
ENDSEC;
END-ISO-10303-21;
