ISO-10303-21;
HEADER;
/* Generated by software containing ST-Developer
 * from STEP Tools, Inc. (www.steptools.com) 
 */

FILE_DESCRIPTION(
/* description */ (''),
/* implementation_level */ '2;1');

FILE_NAME(
/* name */ 'C:/Users/Admin/Downloads/Untitled v1.step',
/* time_stamp */ '2020-08-28T23:38:54+02:00',
/* author */ (''),
/* organization */ (''),
/* preprocessor_version */ 'ST-DEVELOPER v18.1',
/* originating_system */ 'Autodesk Translation Framework v9.3.0.1241',
/* authorisation */ '');

FILE_SCHEMA (('AUTOMOTIVE_DESIGN { 1 0 10303 214 3 1 1 }'));
ENDSEC;

DATA;
#10=MECHANICAL_DESIGN_GEOMETRIC_PRESENTATION_REPRESENTATION('',(#13),#522);
#11=SHAPE_REPRESENTATION_RELATIONSHIP('SRR','None',#529,#12);
#12=ADVANCED_BREP_SHAPE_REPRESENTATION('',(#14),#521);
#13=STYLED_ITEM('',(#538),#14);
#14=MANIFOLD_SOLID_BREP('Body1',#288);
#15=FACE_BOUND('',#46,.T.);
#16=FACE_BOUND('',#49,.T.);
#17=FACE_BOUND('',#56,.T.);
#18=FACE_BOUND('',#57,.T.);
#19=PLANE('',#306);
#20=PLANE('',#311);
#21=PLANE('',#322);
#22=PLANE('',#323);
#23=PLANE('',#324);
#24=PLANE('',#325);
#25=PLANE('',#326);
#26=PLANE('',#327);
#27=PLANE('',#328);
#28=PLANE('',#329);
#29=FACE_OUTER_BOUND('',#44,.T.);
#30=FACE_OUTER_BOUND('',#45,.T.);
#31=FACE_OUTER_BOUND('',#47,.T.);
#32=FACE_OUTER_BOUND('',#48,.T.);
#33=FACE_OUTER_BOUND('',#50,.T.);
#34=FACE_OUTER_BOUND('',#51,.T.);
#35=FACE_OUTER_BOUND('',#52,.T.);
#36=FACE_OUTER_BOUND('',#53,.T.);
#37=FACE_OUTER_BOUND('',#54,.T.);
#38=FACE_OUTER_BOUND('',#55,.T.);
#39=FACE_OUTER_BOUND('',#58,.T.);
#40=FACE_OUTER_BOUND('',#59,.T.);
#41=FACE_OUTER_BOUND('',#60,.T.);
#42=FACE_OUTER_BOUND('',#61,.T.);
#43=FACE_OUTER_BOUND('',#62,.T.);
#44=EDGE_LOOP('',(#190,#191,#192,#193,#194,#195));
#45=EDGE_LOOP('',(#196));
#46=EDGE_LOOP('',(#197));
#47=EDGE_LOOP('',(#198,#199,#200,#201,#202,#203));
#48=EDGE_LOOP('',(#204));
#49=EDGE_LOOP('',(#205));
#50=EDGE_LOOP('',(#206,#207,#208,#209,#210,#211,#212,#213,#214,#215,#216,
#217,#218));
#51=EDGE_LOOP('',(#219,#220,#221,#222));
#52=EDGE_LOOP('',(#223,#224,#225,#226));
#53=EDGE_LOOP('',(#227,#228,#229,#230,#231,#232,#233));
#54=EDGE_LOOP('',(#234,#235,#236,#237));
#55=EDGE_LOOP('',(#238,#239,#240,#241));
#56=EDGE_LOOP('',(#242));
#57=EDGE_LOOP('',(#243));
#58=EDGE_LOOP('',(#244,#245,#246,#247));
#59=EDGE_LOOP('',(#248,#249,#250,#251,#252,#253));
#60=EDGE_LOOP('',(#254,#255,#256,#257,#258,#259,#260));
#61=EDGE_LOOP('',(#261,#262,#263,#264,#265,#266));
#62=EDGE_LOOP('',(#267));
#63=B_SPLINE_CURVE_WITH_KNOTS('',3,(#420,#421,#422,#423,#424,#425,#426,
#427,#428,#429,#430,#431,#432,#433),.UNSPECIFIED.,.F.,.F.,(4,2,2,2,2,2,
4),(-2.53975230109766,-2.37794827541205,-2.24740883627523,-2.11686939713842,
-1.9863299580016,-1.85579051886479,-1.69398649317917),.UNSPECIFIED.);
#64=B_SPLINE_CURVE_WITH_KNOTS('',3,(#444,#445,#446,#447,#448,#449,#450,
#451),.UNSPECIFIED.,.F.,.F.,(4,2,2,4),(-2.53975230109767,-2.37794827541205,
-2.24740883627523,-2.11686939713842),.UNSPECIFIED.);
#65=B_SPLINE_CURVE_WITH_KNOTS('',3,(#454,#455,#456,#457,#458,#459,#460,
#461),.UNSPECIFIED.,.F.,.F.,(4,2,2,4),(-2.11686939713842,-1.9863299580016,
-1.85579051886479,-1.69398649317917),.UNSPECIFIED.);
#66=ELLIPSE('',#304,9.26805937576021,6.5);
#67=ELLIPSE('',#305,9.26805937576021,6.5);
#68=ELLIPSE('',#310,9.26805937576021,6.5);
#69=LINE('',#416,#92);
#70=LINE('',#442,#93);
#71=LINE('',#469,#94);
#72=LINE('',#472,#95);
#73=LINE('',#474,#96);
#74=LINE('',#477,#97);
#75=LINE('',#479,#98);
#76=LINE('',#484,#99);
#77=LINE('',#488,#100);
#78=LINE('',#491,#101);
#79=LINE('',#493,#102);
#80=LINE('',#494,#103);
#81=LINE('',#497,#104);
#82=LINE('',#499,#105);
#83=LINE('',#500,#106);
#84=LINE('',#503,#107);
#85=LINE('',#505,#108);
#86=LINE('',#506,#109);
#87=LINE('',#509,#110);
#88=LINE('',#511,#111);
#89=LINE('',#512,#112);
#90=LINE('',#514,#113);
#91=LINE('',#515,#114);
#92=VECTOR('',#336,6.5);
#93=VECTOR('',#349,6.5);
#94=VECTOR('',#360,21.5);
#95=VECTOR('',#363,10.);
#96=VECTOR('',#364,10.);
#97=VECTOR('',#367,10.);
#98=VECTOR('',#368,10.);
#99=VECTOR('',#375,3.5);
#100=VECTOR('',#380,3.5);
#101=VECTOR('',#383,10.);
#102=VECTOR('',#384,10.);
#103=VECTOR('',#385,10.);
#104=VECTOR('',#388,10.);
#105=VECTOR('',#389,10.);
#106=VECTOR('',#390,10.);
#107=VECTOR('',#393,10.);
#108=VECTOR('',#394,10.);
#109=VECTOR('',#395,10.);
#110=VECTOR('',#398,10.);
#111=VECTOR('',#399,10.);
#112=VECTOR('',#400,10.);
#113=VECTOR('',#403,10.);
#114=VECTOR('',#404,10.);
#115=CIRCLE('',#303,6.5);
#116=CIRCLE('',#307,3.5);
#117=CIRCLE('',#309,6.5);
#118=CIRCLE('',#312,3.5);
#119=CIRCLE('',#314,21.5);
#120=CIRCLE('',#315,21.5);
#121=CIRCLE('',#316,21.5);
#122=CIRCLE('',#317,21.5);
#123=CIRCLE('',#319,3.5);
#124=CIRCLE('',#321,3.5);
#125=VERTEX_POINT('',#413);
#126=VERTEX_POINT('',#415);
#127=VERTEX_POINT('',#417);
#128=VERTEX_POINT('',#419);
#129=VERTEX_POINT('',#436);
#130=VERTEX_POINT('',#439);
#131=VERTEX_POINT('',#441);
#132=VERTEX_POINT('',#443);
#133=VERTEX_POINT('',#452);
#134=VERTEX_POINT('',#463);
#135=VERTEX_POINT('',#466);
#136=VERTEX_POINT('',#468);
#137=VERTEX_POINT('',#470);
#138=VERTEX_POINT('',#473);
#139=VERTEX_POINT('',#475);
#140=VERTEX_POINT('',#478);
#141=VERTEX_POINT('',#482);
#142=VERTEX_POINT('',#486);
#143=VERTEX_POINT('',#490);
#144=VERTEX_POINT('',#492);
#145=VERTEX_POINT('',#496);
#146=VERTEX_POINT('',#498);
#147=VERTEX_POINT('',#502);
#148=VERTEX_POINT('',#504);
#149=VERTEX_POINT('',#508);
#150=VERTEX_POINT('',#510);
#151=EDGE_CURVE('',#125,#125,#115,.T.);
#152=EDGE_CURVE('',#125,#126,#69,.T.);
#153=EDGE_CURVE('',#127,#126,#66,.T.);
#154=EDGE_CURVE('',#128,#127,#63,.T.);
#155=EDGE_CURVE('',#126,#128,#67,.T.);
#156=EDGE_CURVE('',#129,#129,#116,.T.);
#157=EDGE_CURVE('',#130,#130,#117,.T.);
#158=EDGE_CURVE('',#130,#131,#70,.T.);
#159=EDGE_CURVE('',#132,#131,#64,.T.);
#160=EDGE_CURVE('',#133,#132,#68,.T.);
#161=EDGE_CURVE('',#131,#133,#65,.T.);
#162=EDGE_CURVE('',#134,#134,#118,.T.);
#163=EDGE_CURVE('',#135,#135,#119,.T.);
#164=EDGE_CURVE('',#135,#136,#71,.T.);
#165=EDGE_CURVE('',#136,#137,#120,.T.);
#166=EDGE_CURVE('',#137,#132,#72,.T.);
#167=EDGE_CURVE('',#133,#138,#73,.T.);
#168=EDGE_CURVE('',#139,#138,#121,.T.);
#169=EDGE_CURVE('',#128,#139,#74,.T.);
#170=EDGE_CURVE('',#140,#127,#75,.T.);
#171=EDGE_CURVE('',#140,#136,#122,.T.);
#172=EDGE_CURVE('',#141,#141,#123,.T.);
#173=EDGE_CURVE('',#141,#129,#76,.T.);
#174=EDGE_CURVE('',#142,#142,#124,.T.);
#175=EDGE_CURVE('',#142,#134,#77,.T.);
#176=EDGE_CURVE('',#143,#139,#78,.T.);
#177=EDGE_CURVE('',#144,#143,#79,.T.);
#178=EDGE_CURVE('',#144,#140,#80,.T.);
#179=EDGE_CURVE('',#145,#144,#81,.T.);
#180=EDGE_CURVE('',#146,#143,#82,.T.);
#181=EDGE_CURVE('',#145,#146,#83,.T.);
#182=EDGE_CURVE('',#145,#147,#84,.T.);
#183=EDGE_CURVE('',#148,#146,#85,.T.);
#184=EDGE_CURVE('',#147,#148,#86,.T.);
#185=EDGE_CURVE('',#147,#149,#87,.T.);
#186=EDGE_CURVE('',#150,#148,#88,.T.);
#187=EDGE_CURVE('',#149,#150,#89,.T.);
#188=EDGE_CURVE('',#149,#137,#90,.T.);
#189=EDGE_CURVE('',#138,#150,#91,.T.);
#190=ORIENTED_EDGE('',*,*,#151,.T.);
#191=ORIENTED_EDGE('',*,*,#152,.T.);
#192=ORIENTED_EDGE('',*,*,#153,.F.);
#193=ORIENTED_EDGE('',*,*,#154,.F.);
#194=ORIENTED_EDGE('',*,*,#155,.F.);
#195=ORIENTED_EDGE('',*,*,#152,.F.);
#196=ORIENTED_EDGE('',*,*,#151,.F.);
#197=ORIENTED_EDGE('',*,*,#156,.F.);
#198=ORIENTED_EDGE('',*,*,#157,.T.);
#199=ORIENTED_EDGE('',*,*,#158,.T.);
#200=ORIENTED_EDGE('',*,*,#159,.F.);
#201=ORIENTED_EDGE('',*,*,#160,.F.);
#202=ORIENTED_EDGE('',*,*,#161,.F.);
#203=ORIENTED_EDGE('',*,*,#158,.F.);
#204=ORIENTED_EDGE('',*,*,#157,.F.);
#205=ORIENTED_EDGE('',*,*,#162,.F.);
#206=ORIENTED_EDGE('',*,*,#163,.F.);
#207=ORIENTED_EDGE('',*,*,#164,.T.);
#208=ORIENTED_EDGE('',*,*,#165,.T.);
#209=ORIENTED_EDGE('',*,*,#166,.T.);
#210=ORIENTED_EDGE('',*,*,#159,.T.);
#211=ORIENTED_EDGE('',*,*,#161,.T.);
#212=ORIENTED_EDGE('',*,*,#167,.T.);
#213=ORIENTED_EDGE('',*,*,#168,.F.);
#214=ORIENTED_EDGE('',*,*,#169,.F.);
#215=ORIENTED_EDGE('',*,*,#154,.T.);
#216=ORIENTED_EDGE('',*,*,#170,.F.);
#217=ORIENTED_EDGE('',*,*,#171,.T.);
#218=ORIENTED_EDGE('',*,*,#164,.F.);
#219=ORIENTED_EDGE('',*,*,#172,.F.);
#220=ORIENTED_EDGE('',*,*,#173,.T.);
#221=ORIENTED_EDGE('',*,*,#156,.T.);
#222=ORIENTED_EDGE('',*,*,#173,.F.);
#223=ORIENTED_EDGE('',*,*,#174,.F.);
#224=ORIENTED_EDGE('',*,*,#175,.T.);
#225=ORIENTED_EDGE('',*,*,#162,.T.);
#226=ORIENTED_EDGE('',*,*,#175,.F.);
#227=ORIENTED_EDGE('',*,*,#153,.T.);
#228=ORIENTED_EDGE('',*,*,#155,.T.);
#229=ORIENTED_EDGE('',*,*,#169,.T.);
#230=ORIENTED_EDGE('',*,*,#176,.F.);
#231=ORIENTED_EDGE('',*,*,#177,.F.);
#232=ORIENTED_EDGE('',*,*,#178,.T.);
#233=ORIENTED_EDGE('',*,*,#170,.T.);
#234=ORIENTED_EDGE('',*,*,#179,.T.);
#235=ORIENTED_EDGE('',*,*,#177,.T.);
#236=ORIENTED_EDGE('',*,*,#180,.F.);
#237=ORIENTED_EDGE('',*,*,#181,.F.);
#238=ORIENTED_EDGE('',*,*,#182,.F.);
#239=ORIENTED_EDGE('',*,*,#181,.T.);
#240=ORIENTED_EDGE('',*,*,#183,.F.);
#241=ORIENTED_EDGE('',*,*,#184,.F.);
#242=ORIENTED_EDGE('',*,*,#172,.T.);
#243=ORIENTED_EDGE('',*,*,#174,.T.);
#244=ORIENTED_EDGE('',*,*,#185,.F.);
#245=ORIENTED_EDGE('',*,*,#184,.T.);
#246=ORIENTED_EDGE('',*,*,#186,.F.);
#247=ORIENTED_EDGE('',*,*,#187,.F.);
#248=ORIENTED_EDGE('',*,*,#160,.T.);
#249=ORIENTED_EDGE('',*,*,#166,.F.);
#250=ORIENTED_EDGE('',*,*,#188,.F.);
#251=ORIENTED_EDGE('',*,*,#187,.T.);
#252=ORIENTED_EDGE('',*,*,#189,.F.);
#253=ORIENTED_EDGE('',*,*,#167,.F.);
#254=ORIENTED_EDGE('',*,*,#171,.F.);
#255=ORIENTED_EDGE('',*,*,#178,.F.);
#256=ORIENTED_EDGE('',*,*,#179,.F.);
#257=ORIENTED_EDGE('',*,*,#182,.T.);
#258=ORIENTED_EDGE('',*,*,#185,.T.);
#259=ORIENTED_EDGE('',*,*,#188,.T.);
#260=ORIENTED_EDGE('',*,*,#165,.F.);
#261=ORIENTED_EDGE('',*,*,#168,.T.);
#262=ORIENTED_EDGE('',*,*,#189,.T.);
#263=ORIENTED_EDGE('',*,*,#186,.T.);
#264=ORIENTED_EDGE('',*,*,#183,.T.);
#265=ORIENTED_EDGE('',*,*,#180,.T.);
#266=ORIENTED_EDGE('',*,*,#176,.T.);
#267=ORIENTED_EDGE('',*,*,#163,.T.);
#268=CYLINDRICAL_SURFACE('',#302,6.5);
#269=CYLINDRICAL_SURFACE('',#308,6.5);
#270=CYLINDRICAL_SURFACE('',#313,21.5);
#271=CYLINDRICAL_SURFACE('',#318,3.5);
#272=CYLINDRICAL_SURFACE('',#320,3.5);
#273=ADVANCED_FACE('',(#29),#268,.F.);
#274=ADVANCED_FACE('',(#30,#15),#19,.F.);
#275=ADVANCED_FACE('',(#31),#269,.F.);
#276=ADVANCED_FACE('',(#32,#16),#20,.F.);
#277=ADVANCED_FACE('',(#33),#270,.T.);
#278=ADVANCED_FACE('',(#34),#271,.F.);
#279=ADVANCED_FACE('',(#35),#272,.F.);
#280=ADVANCED_FACE('',(#36),#21,.T.);
#281=ADVANCED_FACE('',(#37),#22,.T.);
#282=ADVANCED_FACE('',(#38,#17,#18),#23,.T.);
#283=ADVANCED_FACE('',(#39),#24,.T.);
#284=ADVANCED_FACE('',(#40),#25,.T.);
#285=ADVANCED_FACE('',(#41),#26,.T.);
#286=ADVANCED_FACE('',(#42),#27,.F.);
#287=ADVANCED_FACE('',(#43),#28,.T.);
#288=CLOSED_SHELL('',(#273,#274,#275,#276,#277,#278,#279,#280,#281,#282,
#283,#284,#285,#286,#287));
#289=DERIVED_UNIT_ELEMENT(#291,1.);
#290=DERIVED_UNIT_ELEMENT(#524,3.);
#291=(
MASS_UNIT()
NAMED_UNIT(*)
SI_UNIT(.KILO.,.GRAM.)
);
#292=DERIVED_UNIT((#289,#290));
#293=MEASURE_REPRESENTATION_ITEM('density measure',
POSITIVE_RATIO_MEASURE(7850.),#292);
#294=PROPERTY_DEFINITION_REPRESENTATION(#299,#296);
#295=PROPERTY_DEFINITION_REPRESENTATION(#300,#297);
#296=REPRESENTATION('material name',(#298),#521);
#297=REPRESENTATION('density',(#293),#521);
#298=DESCRIPTIVE_REPRESENTATION_ITEM('Steel','Steel');
#299=PROPERTY_DEFINITION('material property','material name',#531);
#300=PROPERTY_DEFINITION('material property','density of part',#531);
#301=AXIS2_PLACEMENT_3D('placement',#411,#330,#331);
#302=AXIS2_PLACEMENT_3D('',#412,#332,#333);
#303=AXIS2_PLACEMENT_3D('',#414,#334,#335);
#304=AXIS2_PLACEMENT_3D('',#418,#337,#338);
#305=AXIS2_PLACEMENT_3D('',#434,#339,#340);
#306=AXIS2_PLACEMENT_3D('',#435,#341,#342);
#307=AXIS2_PLACEMENT_3D('',#437,#343,#344);
#308=AXIS2_PLACEMENT_3D('',#438,#345,#346);
#309=AXIS2_PLACEMENT_3D('',#440,#347,#348);
#310=AXIS2_PLACEMENT_3D('',#453,#350,#351);
#311=AXIS2_PLACEMENT_3D('',#462,#352,#353);
#312=AXIS2_PLACEMENT_3D('',#464,#354,#355);
#313=AXIS2_PLACEMENT_3D('',#465,#356,#357);
#314=AXIS2_PLACEMENT_3D('',#467,#358,#359);
#315=AXIS2_PLACEMENT_3D('',#471,#361,#362);
#316=AXIS2_PLACEMENT_3D('',#476,#365,#366);
#317=AXIS2_PLACEMENT_3D('',#480,#369,#370);
#318=AXIS2_PLACEMENT_3D('',#481,#371,#372);
#319=AXIS2_PLACEMENT_3D('',#483,#373,#374);
#320=AXIS2_PLACEMENT_3D('',#485,#376,#377);
#321=AXIS2_PLACEMENT_3D('',#487,#378,#379);
#322=AXIS2_PLACEMENT_3D('',#489,#381,#382);
#323=AXIS2_PLACEMENT_3D('',#495,#386,#387);
#324=AXIS2_PLACEMENT_3D('',#501,#391,#392);
#325=AXIS2_PLACEMENT_3D('',#507,#396,#397);
#326=AXIS2_PLACEMENT_3D('',#513,#401,#402);
#327=AXIS2_PLACEMENT_3D('',#516,#405,#406);
#328=AXIS2_PLACEMENT_3D('',#517,#407,#408);
#329=AXIS2_PLACEMENT_3D('',#518,#409,#410);
#330=DIRECTION('axis',(0.,0.,1.));
#331=DIRECTION('refdir',(1.,0.,0.));
#332=DIRECTION('center_axis',(1.,0.,0.));
#333=DIRECTION('ref_axis',(0.,-1.,0.));
#334=DIRECTION('center_axis',(-1.,0.,0.));
#335=DIRECTION('ref_axis',(0.,-1.,0.));
#336=DIRECTION('',(1.,0.,0.));
#337=DIRECTION('center_axis',(-0.701333443870695,-0.712833360967674,0.));
#338=DIRECTION('ref_axis',(0.712833360967674,-0.701333443870695,0.));
#339=DIRECTION('center_axis',(-0.701333443870695,-0.712833360967674,0.));
#340=DIRECTION('ref_axis',(0.712833360967674,-0.701333443870695,0.));
#341=DIRECTION('center_axis',(-1.,0.,0.));
#342=DIRECTION('ref_axis',(0.,-1.,0.));
#343=DIRECTION('center_axis',(1.,0.,0.));
#344=DIRECTION('ref_axis',(0.,-1.,0.));
#345=DIRECTION('center_axis',(1.,0.,0.));
#346=DIRECTION('ref_axis',(0.,-1.,0.));
#347=DIRECTION('center_axis',(-1.,0.,0.));
#348=DIRECTION('ref_axis',(0.,-1.,0.));
#349=DIRECTION('',(1.,0.,0.));
#350=DIRECTION('center_axis',(-0.701333443870695,0.712833360967674,0.));
#351=DIRECTION('ref_axis',(-0.712833360967674,-0.701333443870695,0.));
#352=DIRECTION('center_axis',(-1.,0.,0.));
#353=DIRECTION('ref_axis',(0.,-1.,0.));
#354=DIRECTION('center_axis',(1.,0.,0.));
#355=DIRECTION('ref_axis',(0.,-1.,0.));
#356=DIRECTION('center_axis',(0.,0.,1.));
#357=DIRECTION('ref_axis',(1.,0.,0.));
#358=DIRECTION('center_axis',(0.,0.,1.));
#359=DIRECTION('ref_axis',(1.,0.,0.));
#360=DIRECTION('',(0.,0.,-1.));
#361=DIRECTION('center_axis',(0.,0.,1.));
#362=DIRECTION('ref_axis',(1.,0.,0.));
#363=DIRECTION('',(0.,0.,-1.));
#364=DIRECTION('',(0.,0.,-1.));
#365=DIRECTION('center_axis',(0.,0.,-1.));
#366=DIRECTION('ref_axis',(1.,0.,0.));
#367=DIRECTION('',(0.,0.,-1.));
#368=DIRECTION('',(0.,0.,-1.));
#369=DIRECTION('center_axis',(0.,0.,1.));
#370=DIRECTION('ref_axis',(1.,0.,0.));
#371=DIRECTION('center_axis',(1.,0.,0.));
#372=DIRECTION('ref_axis',(0.,-1.,0.));
#373=DIRECTION('center_axis',(1.,0.,0.));
#374=DIRECTION('ref_axis',(0.,-1.,0.));
#375=DIRECTION('',(1.,0.,0.));
#376=DIRECTION('center_axis',(1.,0.,0.));
#377=DIRECTION('ref_axis',(0.,-1.,0.));
#378=DIRECTION('center_axis',(1.,0.,0.));
#379=DIRECTION('ref_axis',(0.,-1.,0.));
#380=DIRECTION('',(1.,0.,0.));
#381=DIRECTION('center_axis',(0.701333443870695,0.712833360967674,0.));
#382=DIRECTION('ref_axis',(0.712833360967674,-0.701333443870695,0.));
#383=DIRECTION('',(0.712833360967674,-0.701333443870695,0.));
#384=DIRECTION('',(0.,0.,-1.));
#385=DIRECTION('',(0.712833360967674,-0.701333443870695,0.));
#386=DIRECTION('center_axis',(0.,1.,0.));
#387=DIRECTION('ref_axis',(1.,0.,0.));
#388=DIRECTION('',(1.,0.,0.));
#389=DIRECTION('',(1.,0.,0.));
#390=DIRECTION('',(0.,0.,-1.));
#391=DIRECTION('center_axis',(-1.,0.,0.));
#392=DIRECTION('ref_axis',(0.,1.,0.));
#393=DIRECTION('',(0.,-1.,0.));
#394=DIRECTION('',(0.,1.,0.));
#395=DIRECTION('',(0.,0.,-1.));
#396=DIRECTION('center_axis',(0.,-1.,0.));
#397=DIRECTION('ref_axis',(-1.,0.,0.));
#398=DIRECTION('',(1.,0.,0.));
#399=DIRECTION('',(-1.,0.,0.));
#400=DIRECTION('',(0.,0.,-1.));
#401=DIRECTION('center_axis',(0.701333443870695,-0.712833360967674,0.));
#402=DIRECTION('ref_axis',(-0.712833360967674,-0.701333443870695,0.));
#403=DIRECTION('',(0.712833360967674,0.701333443870695,0.));
#404=DIRECTION('',(-0.712833360967674,-0.701333443870695,0.));
#405=DIRECTION('center_axis',(0.,0.,1.));
#406=DIRECTION('ref_axis',(1.,0.,0.));
#407=DIRECTION('center_axis',(0.,0.,1.));
#408=DIRECTION('ref_axis',(1.,0.,0.));
#409=DIRECTION('center_axis',(0.,0.,1.));
#410=DIRECTION('ref_axis',(1.,0.,0.));
#411=CARTESIAN_POINT('',(0.,0.,0.));
#412=CARTESIAN_POINT('Origin',(-10.,20.5,-10.));
#413=CARTESIAN_POINT('',(-10.,27.,-10.));
#414=CARTESIAN_POINT('Origin',(-10.,20.5,-10.));
#415=CARTESIAN_POINT('',(3.21316382894223,27.,-10.));
#416=CARTESIAN_POINT('',(-10.,27.,-10.));
#417=CARTESIAN_POINT('',(15.0786690432199,15.325917260805,-6.06568076943873));
#418=CARTESIAN_POINT('Origin',(9.81974574341335,20.5,-10.));
#419=CARTESIAN_POINT('',(15.0786690432199,15.325917260805,-13.9343192305613));
#420=CARTESIAN_POINT('Ctrl Pts',(15.0786690432199,15.325917260805,-13.9343192305613));
#421=CARTESIAN_POINT('Ctrl Pts',(15.3845314220105,15.0249892638655,-13.5385642692937));
#422=CARTESIAN_POINT('Ctrl Pts',(15.6399488852209,14.7552933388,-13.0828743116584));
#423=CARTESIAN_POINT('Ctrl Pts',(15.9785747386065,14.3869753935038,-12.2466433530137));
#424=CARTESIAN_POINT('Ctrl Pts',(16.1081160743054,14.240615727664,-11.8123392424468));
#425=CARTESIAN_POINT('Ctrl Pts',(16.2773208275339,14.0468987739145,-10.9066150514729));
#426=CARTESIAN_POINT('Ctrl Pts',(16.3171688720807,14.,-10.4351314637894));
#427=CARTESIAN_POINT('Ctrl Pts',(16.3171688720807,14.,-9.56486853621061));
#428=CARTESIAN_POINT('Ctrl Pts',(16.2773208275339,14.0468987739145,-9.0933849485271));
#429=CARTESIAN_POINT('Ctrl Pts',(16.1081160743054,14.240615727664,-8.1876607575532));
#430=CARTESIAN_POINT('Ctrl Pts',(15.9785747386065,14.3869753935038,-7.75335664698629));
#431=CARTESIAN_POINT('Ctrl Pts',(15.6399488852209,14.7552933388,-6.91712568834157));
#432=CARTESIAN_POINT('Ctrl Pts',(15.3845314220105,15.0249892638655,-6.46143573070631));
#433=CARTESIAN_POINT('Ctrl Pts',(15.0786690432199,15.325917260805,-6.06568076943873));
#434=CARTESIAN_POINT('Origin',(9.81974574341335,20.5,-10.));
#435=CARTESIAN_POINT('Origin',(-10.,20.5,-10.));
#436=CARTESIAN_POINT('',(-10.,24.,-10.));
#437=CARTESIAN_POINT('Origin',(-10.,20.5,-10.));
#438=CARTESIAN_POINT('Origin',(-10.,-20.5,-10.));
#439=CARTESIAN_POINT('',(-10.,-14.,-10.));
#440=CARTESIAN_POINT('Origin',(-10.,-20.5,-10.));
#441=CARTESIAN_POINT('',(16.3171688720807,-14.,-10.));
#442=CARTESIAN_POINT('',(-10.,-14.,-10.));
#443=CARTESIAN_POINT('',(15.07866904322,-15.325917260805,-6.06568076943873));
#444=CARTESIAN_POINT('Ctrl Pts',(15.0786690432199,-15.325917260805,-6.06568076943873));
#445=CARTESIAN_POINT('Ctrl Pts',(15.3845314220105,-15.0249892638655,-6.46143573070631));
#446=CARTESIAN_POINT('Ctrl Pts',(15.6399488852209,-14.7552933388,-6.91712568834157));
#447=CARTESIAN_POINT('Ctrl Pts',(15.9785747386065,-14.3869753935038,-7.75335664698629));
#448=CARTESIAN_POINT('Ctrl Pts',(16.1081160743054,-14.240615727664,-8.1876607575532));
#449=CARTESIAN_POINT('Ctrl Pts',(16.2773208275339,-14.0468987739145,-9.0933849485271));
#450=CARTESIAN_POINT('Ctrl Pts',(16.3171688720807,-14.,-9.56486853621062));
#451=CARTESIAN_POINT('Ctrl Pts',(16.3171688720807,-14.,-10.));
#452=CARTESIAN_POINT('',(15.07866904322,-15.325917260805,-13.9343192305613));
#453=CARTESIAN_POINT('Origin',(9.81974574341335,-20.5,-10.));
#454=CARTESIAN_POINT('Ctrl Pts',(16.3171688720807,-14.,-10.));
#455=CARTESIAN_POINT('Ctrl Pts',(16.3171688720807,-14.,-10.4351314637894));
#456=CARTESIAN_POINT('Ctrl Pts',(16.2773208275339,-14.0468987739145,-10.9066150514729));
#457=CARTESIAN_POINT('Ctrl Pts',(16.1081160743054,-14.240615727664,-11.8123392424468));
#458=CARTESIAN_POINT('Ctrl Pts',(15.9785747386065,-14.3869753935038,-12.2466433530137));
#459=CARTESIAN_POINT('Ctrl Pts',(15.6399488852209,-14.7552933388,-13.0828743116584));
#460=CARTESIAN_POINT('Ctrl Pts',(15.3845314220105,-15.0249892638655,-13.5385642692937));
#461=CARTESIAN_POINT('Ctrl Pts',(15.0786690432199,-15.325917260805,-13.9343192305613));
#462=CARTESIAN_POINT('Origin',(-10.,-20.5,-10.));
#463=CARTESIAN_POINT('',(-10.,-17.,-10.));
#464=CARTESIAN_POINT('Origin',(-10.,-20.5,-10.));
#465=CARTESIAN_POINT('Origin',(0.,0.,0.));
#466=CARTESIAN_POINT('',(-21.5,-2.63299061816681E-15,20.));
#467=CARTESIAN_POINT('Origin',(0.,0.,20.));
#468=CARTESIAN_POINT('',(-21.5,-2.63299061816681E-15,0.));
#469=CARTESIAN_POINT('',(-21.5,-2.63299061816681E-15,0.));
#470=CARTESIAN_POINT('',(15.07866904322,-15.325917260805,0.));
#471=CARTESIAN_POINT('Origin',(0.,0.,0.));
#472=CARTESIAN_POINT('',(15.07866904322,-15.325917260805,0.));
#473=CARTESIAN_POINT('',(15.07866904322,-15.325917260805,-20.));
#474=CARTESIAN_POINT('',(15.07866904322,-15.325917260805,0.));
#475=CARTESIAN_POINT('',(15.07866904322,15.325917260805,-20.));
#476=CARTESIAN_POINT('Origin',(0.,0.,-20.));
#477=CARTESIAN_POINT('',(15.07866904322,15.325917260805,0.));
#478=CARTESIAN_POINT('',(15.07866904322,15.325917260805,0.));
#479=CARTESIAN_POINT('',(15.07866904322,15.325917260805,0.));
#480=CARTESIAN_POINT('Origin',(0.,0.,0.));
#481=CARTESIAN_POINT('Origin',(-25.,20.5,-10.));
#482=CARTESIAN_POINT('',(-25.,24.,-10.));
#483=CARTESIAN_POINT('Origin',(-25.,20.5,-10.));
#484=CARTESIAN_POINT('',(-25.,24.,-10.));
#485=CARTESIAN_POINT('Origin',(-25.,-20.5,-10.));
#486=CARTESIAN_POINT('',(-25.,-17.,-10.));
#487=CARTESIAN_POINT('Origin',(-25.,-20.5,-10.));
#488=CARTESIAN_POINT('',(-25.,-17.,-10.));
#489=CARTESIAN_POINT('Origin',(-10.,40.,0.));
#490=CARTESIAN_POINT('',(-10.,40.,-20.));
#491=CARTESIAN_POINT('',(-10.,40.,-20.));
#492=CARTESIAN_POINT('',(-10.,40.,0.));
#493=CARTESIAN_POINT('',(-10.,40.,0.));
#494=CARTESIAN_POINT('',(-10.,40.,0.));
#495=CARTESIAN_POINT('Origin',(-25.,40.,0.));
#496=CARTESIAN_POINT('',(-25.,40.,0.));
#497=CARTESIAN_POINT('',(-25.,40.,0.));
#498=CARTESIAN_POINT('',(-25.,40.,-20.));
#499=CARTESIAN_POINT('',(-25.,40.,-20.));
#500=CARTESIAN_POINT('',(-25.,40.,0.));
#501=CARTESIAN_POINT('Origin',(-25.,-40.,0.));
#502=CARTESIAN_POINT('',(-25.,-40.,0.));
#503=CARTESIAN_POINT('',(-25.,40.,0.));
#504=CARTESIAN_POINT('',(-25.,-40.,-20.));
#505=CARTESIAN_POINT('',(-25.,40.,-20.));
#506=CARTESIAN_POINT('',(-25.,-40.,0.));
#507=CARTESIAN_POINT('Origin',(-10.,-40.,0.));
#508=CARTESIAN_POINT('',(-10.,-40.,0.));
#509=CARTESIAN_POINT('',(-45.,-40.,0.));
#510=CARTESIAN_POINT('',(-10.,-40.,-20.));
#511=CARTESIAN_POINT('',(-45.,-40.,-20.));
#512=CARTESIAN_POINT('',(-10.,-40.,0.));
#513=CARTESIAN_POINT('Origin',(15.0786690432199,-15.325917260805,0.));
#514=CARTESIAN_POINT('',(-10.,-40.,0.));
#515=CARTESIAN_POINT('',(-10.,-40.,-20.));
#516=CARTESIAN_POINT('Origin',(0.,0.,0.));
#517=CARTESIAN_POINT('Origin',(0.,0.,-20.));
#518=CARTESIAN_POINT('Origin',(0.,0.,20.));
#519=UNCERTAINTY_MEASURE_WITH_UNIT(LENGTH_MEASURE(0.01),#523,
'DISTANCE_ACCURACY_VALUE',
'Maximum model space distance between geometric entities at asserted c
onnectivities');
#520=UNCERTAINTY_MEASURE_WITH_UNIT(LENGTH_MEASURE(0.01),#523,
'DISTANCE_ACCURACY_VALUE',
'Maximum model space distance between geometric entities at asserted c
onnectivities');
#521=(
GEOMETRIC_REPRESENTATION_CONTEXT(3)
GLOBAL_UNCERTAINTY_ASSIGNED_CONTEXT((#519))
GLOBAL_UNIT_ASSIGNED_CONTEXT((#523,#525,#526))
REPRESENTATION_CONTEXT('','3D')
);
#522=(
GEOMETRIC_REPRESENTATION_CONTEXT(3)
GLOBAL_UNCERTAINTY_ASSIGNED_CONTEXT((#520))
GLOBAL_UNIT_ASSIGNED_CONTEXT((#523,#525,#526))
REPRESENTATION_CONTEXT('','3D')
);
#523=(
LENGTH_UNIT()
NAMED_UNIT(*)
SI_UNIT(.MILLI.,.METRE.)
);
#524=(
LENGTH_UNIT()
NAMED_UNIT(*)
SI_UNIT($,.METRE.)
);
#525=(
NAMED_UNIT(*)
PLANE_ANGLE_UNIT()
SI_UNIT($,.RADIAN.)
);
#526=(
NAMED_UNIT(*)
SI_UNIT($,.STERADIAN.)
SOLID_ANGLE_UNIT()
);
#527=SHAPE_DEFINITION_REPRESENTATION(#528,#529);
#528=PRODUCT_DEFINITION_SHAPE('',$,#531);
#529=SHAPE_REPRESENTATION('',(#301),#521);
#530=PRODUCT_DEFINITION_CONTEXT('part definition',#535,'design');
#531=PRODUCT_DEFINITION('Untitled','Untitled v1',#532,#530);
#532=PRODUCT_DEFINITION_FORMATION('',$,#537);
#533=PRODUCT_RELATED_PRODUCT_CATEGORY('Untitled v1','Untitled v1',(#537));
#534=APPLICATION_PROTOCOL_DEFINITION('international standard',
'automotive_design',2009,#535);
#535=APPLICATION_CONTEXT(
'Core Data for Automotive Mechanical Design Process');
#536=PRODUCT_CONTEXT('part definition',#535,'mechanical');
#537=PRODUCT('Untitled','Untitled v1',$,(#536));
#538=PRESENTATION_STYLE_ASSIGNMENT((#539));
#539=SURFACE_STYLE_USAGE(.BOTH.,#540);
#540=SURFACE_SIDE_STYLE('',(#541));
#541=SURFACE_STYLE_FILL_AREA(#542);
#542=FILL_AREA_STYLE('Steel - Satin',(#543));
#543=FILL_AREA_STYLE_COLOUR('Steel - Satin',#544);
#544=COLOUR_RGB('Steel - Satin',0.627450980392157,0.627450980392157,0.627450980392157);
ENDSEC;
END-ISO-10303-21;
