ISO-10303-21;
HEADER;
FILE_DESCRIPTION(('CATIA V5 STEP Exchange'),'2;1');

FILE_NAME('C:\\Users\\Pathogen\\Downloads\\NS\\Proto 3\\Assembly 3\\Plate.stp','2020-08-02T15:42:42+00:00',('none'),('none'),'CATIA Version 5 Release 21 GA (IN-10)','CATIA V5 STEP AP203','none');

FILE_SCHEMA(('CONFIG_CONTROL_DESIGN'));

ENDSEC;
/* file written by CATIA V5R21 */
DATA;
#5=PRODUCT('Plate','','',(#2)) ;
#1=APPLICATION_CONTEXT('configuration controlled 3D design of mechanical parts and assemblies') ;
#14=PRODUCT_DEFINITION('',' ',#6,#3) ;
#16=SECURITY_CLASSIFICATION(' ',' ',#15) ;
#15=SECURITY_CLASSIFICATION_LEVEL('unclassified') ;
#47=CARTESIAN_POINT(' ',(0.,0.,0.)) ;
#52=CARTESIAN_POINT('Axis2P3D Location',(1.,0.,0.)) ;
#57=CARTESIAN_POINT('Line Origine',(1.,5.1925,9.52682758057)) ;
#61=CARTESIAN_POINT('Vertex',(0.,5.1925,9.52682758057)) ;
#63=CARTESIAN_POINT('Vertex',(2.,5.1925,9.52682758057)) ;
#66=CARTESIAN_POINT('Axis2P3D Location',(0.,0.,0.)) ;
#70=CARTESIAN_POINT('Vertex',(0.,-5.1925,9.52682758057)) ;
#73=CARTESIAN_POINT('Line Origine',(1.,-5.1925,9.52682758057)) ;
#77=CARTESIAN_POINT('Vertex',(2.,-5.1925,9.52682758057)) ;
#80=CARTESIAN_POINT('Axis2P3D Location',(2.,0.,0.)) ;
#92=CARTESIAN_POINT('Axis2P3D Location',(0.,-15.9860714286,3.64390179349)) ;
#97=CARTESIAN_POINT('Line Origine',(0.,-10.5892857143,6.58536468703)) ;
#101=CARTESIAN_POINT('Vertex',(0.,-15.9860714286,3.64390179349)) ;
#104=CARTESIAN_POINT('Line Origine',(1.,-15.9860714286,3.64390179349)) ;
#108=CARTESIAN_POINT('Vertex',(2.,-15.9860714286,3.64390179349)) ;
#111=CARTESIAN_POINT('Line Origine',(2.,-10.5892857143,6.58536468703)) ;
#123=CARTESIAN_POINT('Axis2P3D Location',(1.,-14.,0.)) ;
#128=CARTESIAN_POINT('Axis2P3D Location',(0.,-14.,0.)) ;
#132=CARTESIAN_POINT('Vertex',(0.,-15.9860714286,-3.64390179349)) ;
#135=CARTESIAN_POINT('Line Origine',(1.,-15.9860714286,-3.64390179349)) ;
#139=CARTESIAN_POINT('Vertex',(2.,-15.9860714286,-3.64390179349)) ;
#142=CARTESIAN_POINT('Axis2P3D Location',(2.,-14.,0.)) ;
#154=CARTESIAN_POINT('Axis2P3D Location',(0.,-15.9860714286,-3.64390179349)) ;
#159=CARTESIAN_POINT('Line Origine',(0.,-10.5892857143,-6.58536468703)) ;
#163=CARTESIAN_POINT('Vertex',(0.,-5.1925,-9.52682758057)) ;
#166=CARTESIAN_POINT('Line Origine',(1.,-5.1925,-9.52682758057)) ;
#170=CARTESIAN_POINT('Vertex',(2.,-5.1925,-9.52682758057)) ;
#173=CARTESIAN_POINT('Line Origine',(2.,-10.5892857143,-6.58536468703)) ;
#185=CARTESIAN_POINT('Axis2P3D Location',(1.,0.,0.)) ;
#190=CARTESIAN_POINT('Axis2P3D Location',(0.,0.,0.)) ;
#194=CARTESIAN_POINT('Vertex',(0.,5.1925,-9.52682758057)) ;
#197=CARTESIAN_POINT('Line Origine',(1.,5.1925,-9.52682758057)) ;
#201=CARTESIAN_POINT('Vertex',(2.,5.1925,-9.52682758057)) ;
#204=CARTESIAN_POINT('Axis2P3D Location',(2.,0.,0.)) ;
#216=CARTESIAN_POINT('Axis2P3D Location',(0.,15.9860714286,-3.64390179349)) ;
#221=CARTESIAN_POINT('Line Origine',(0.,10.5892857143,-6.58536468703)) ;
#225=CARTESIAN_POINT('Vertex',(0.,15.9860714286,-3.64390179349)) ;
#228=CARTESIAN_POINT('Line Origine',(1.,15.9860714286,-3.64390179349)) ;
#232=CARTESIAN_POINT('Vertex',(2.,15.9860714286,-3.64390179349)) ;
#235=CARTESIAN_POINT('Line Origine',(2.,10.5892857143,-6.58536468703)) ;
#247=CARTESIAN_POINT('Axis2P3D Location',(1.,14.,0.)) ;
#252=CARTESIAN_POINT('Axis2P3D Location',(0.,14.,0.)) ;
#256=CARTESIAN_POINT('Vertex',(0.,15.9860714286,3.64390179349)) ;
#259=CARTESIAN_POINT('Line Origine',(1.,15.9860714286,3.64390179349)) ;
#263=CARTESIAN_POINT('Vertex',(2.,15.9860714286,3.64390179349)) ;
#266=CARTESIAN_POINT('Axis2P3D Location',(2.,14.,0.)) ;
#278=CARTESIAN_POINT('Axis2P3D Location',(0.,15.9860714286,3.64390179349)) ;
#283=CARTESIAN_POINT('Line Origine',(0.,10.5892857143,6.58536468703)) ;
#288=CARTESIAN_POINT('Line Origine',(2.,10.5892857143,6.58536468703)) ;
#300=CARTESIAN_POINT('Axis2P3D Location',(1.,0.,0.)) ;
#305=CARTESIAN_POINT('Axis2P3D Location',(2.,0.,0.)) ;
#309=CARTESIAN_POINT('Vertex',(2.,-5.7,6.98025621679E-016)) ;
#311=CARTESIAN_POINT('Vertex',(2.,5.7,0.)) ;
#314=CARTESIAN_POINT('Line Origine',(1.,5.7,-1.39605124336E-015)) ;
#318=CARTESIAN_POINT('Vertex',(0.,5.7,0.)) ;
#321=CARTESIAN_POINT('Axis2P3D Location',(0.,0.,0.)) ;
#325=CARTESIAN_POINT('Vertex',(0.,-5.7,6.98025621679E-016)) ;
#328=CARTESIAN_POINT('Line Origine',(1.,-5.7,6.98025621679E-016)) ;
#340=CARTESIAN_POINT('Axis2P3D Location',(2.,0.,0.)) ;
#345=CARTESIAN_POINT('Axis2P3D Location',(0.,0.,0.)) ;
#357=CARTESIAN_POINT('Axis2P3D Location',(1.,-14.,0.)) ;
#362=CARTESIAN_POINT('Axis2P3D Location',(2.,-14.,0.)) ;
#366=CARTESIAN_POINT('Vertex',(2.,-16.15,2.63290366072E-016)) ;
#368=CARTESIAN_POINT('Vertex',(2.,-11.85,0.)) ;
#371=CARTESIAN_POINT('Line Origine',(1.,-11.85,-5.26580732144E-016)) ;
#375=CARTESIAN_POINT('Vertex',(0.,-11.85,0.)) ;
#378=CARTESIAN_POINT('Axis2P3D Location',(0.,-14.,0.)) ;
#382=CARTESIAN_POINT('Vertex',(0.,-16.15,2.63290366072E-016)) ;
#385=CARTESIAN_POINT('Line Origine',(1.,-16.15,2.63290366072E-016)) ;
#397=CARTESIAN_POINT('Axis2P3D Location',(2.,-14.,0.)) ;
#402=CARTESIAN_POINT('Axis2P3D Location',(0.,-14.,0.)) ;
#414=CARTESIAN_POINT('Axis2P3D Location',(1.,14.,0.)) ;
#419=CARTESIAN_POINT('Axis2P3D Location',(2.,14.,0.)) ;
#423=CARTESIAN_POINT('Vertex',(2.,16.15,-5.26580732144E-016)) ;
#425=CARTESIAN_POINT('Vertex',(2.,11.85,2.63290366072E-016)) ;
#428=CARTESIAN_POINT('Line Origine',(1.,11.85,7.89871098215E-016)) ;
#432=CARTESIAN_POINT('Vertex',(0.,11.85,2.63290366072E-016)) ;
#435=CARTESIAN_POINT('Axis2P3D Location',(0.,14.,0.)) ;
#439=CARTESIAN_POINT('Vertex',(0.,16.15,-5.26580732144E-016)) ;
#442=CARTESIAN_POINT('Line Origine',(1.,16.15,-5.26580732144E-016)) ;
#454=CARTESIAN_POINT('Axis2P3D Location',(2.,14.,0.)) ;
#459=CARTESIAN_POINT('Axis2P3D Location',(0.,14.,0.)) ;
#471=CARTESIAN_POINT('Axis2P3D Location',(0.,0.,0.)) ;
#499=CARTESIAN_POINT('Axis2P3D Location',(2.,0.,0.)) ;
#53=DIRECTION('Axis2P3D Direction',(1.,0.,0.)) ;
#54=DIRECTION('Axis2P3D XDirection',(0.,0.478571428571,0.878048624938)) ;
#58=DIRECTION('Vector Direction',(1.,0.,0.)) ;
#67=DIRECTION('Axis2P3D Direction',(1.,0.,0.)) ;
#74=DIRECTION('Vector Direction',(1.,0.,0.)) ;
#81=DIRECTION('Axis2P3D Direction',(1.,0.,0.)) ;
#93=DIRECTION('Axis2P3D Direction',(0.,0.478571428571,-0.878048624938)) ;
#94=DIRECTION('Axis2P3D XDirection',(0.,0.878048624938,0.478571428571)) ;
#98=DIRECTION('Vector Direction',(0.,0.878048624938,0.478571428571)) ;
#105=DIRECTION('Vector Direction',(1.,0.,0.)) ;
#112=DIRECTION('Vector Direction',(0.,0.878048624938,0.478571428571)) ;
#124=DIRECTION('Axis2P3D Direction',(1.,0.,0.)) ;
#125=DIRECTION('Axis2P3D XDirection',(0.,-0.478571428571,0.878048624938)) ;
#129=DIRECTION('Axis2P3D Direction',(1.,0.,0.)) ;
#136=DIRECTION('Vector Direction',(1.,0.,0.)) ;
#143=DIRECTION('Axis2P3D Direction',(1.,0.,0.)) ;
#155=DIRECTION('Axis2P3D Direction',(0.,-0.478571428571,-0.878048624938)) ;
#156=DIRECTION('Axis2P3D XDirection',(0.,0.878048624938,-0.478571428571)) ;
#160=DIRECTION('Vector Direction',(0.,0.878048624938,-0.478571428571)) ;
#167=DIRECTION('Vector Direction',(1.,0.,0.)) ;
#174=DIRECTION('Vector Direction',(0.,0.878048624938,-0.478571428571)) ;
#186=DIRECTION('Axis2P3D Direction',(1.,0.,0.)) ;
#187=DIRECTION('Axis2P3D XDirection',(-0.,-0.478571428571,-0.878048624938)) ;
#191=DIRECTION('Axis2P3D Direction',(1.,0.,0.)) ;
#198=DIRECTION('Vector Direction',(1.,0.,0.)) ;
#205=DIRECTION('Axis2P3D Direction',(1.,0.,0.)) ;
#217=DIRECTION('Axis2P3D Direction',(0.,-0.478571428571,0.878048624938)) ;
#218=DIRECTION('Axis2P3D XDirection',(-0.,-0.878048624938,-0.478571428571)) ;
#222=DIRECTION('Vector Direction',(0.,-0.878048624938,-0.478571428571)) ;
#229=DIRECTION('Vector Direction',(1.,0.,0.)) ;
#236=DIRECTION('Vector Direction',(0.,-0.878048624938,-0.478571428571)) ;
#248=DIRECTION('Axis2P3D Direction',(1.,0.,0.)) ;
#249=DIRECTION('Axis2P3D XDirection',(0.,0.478571428571,-0.878048624938)) ;
#253=DIRECTION('Axis2P3D Direction',(1.,0.,0.)) ;
#260=DIRECTION('Vector Direction',(1.,0.,0.)) ;
#267=DIRECTION('Axis2P3D Direction',(1.,0.,0.)) ;
#279=DIRECTION('Axis2P3D Direction',(-0.,0.478571428571,0.878048624938)) ;
#280=DIRECTION('Axis2P3D XDirection',(0.,-0.878048624938,0.478571428571)) ;
#284=DIRECTION('Vector Direction',(0.,-0.878048624938,0.478571428571)) ;
#289=DIRECTION('Vector Direction',(0.,-0.878048624938,0.478571428571)) ;
#301=DIRECTION('Axis2P3D Direction',(1.,0.,0.)) ;
#302=DIRECTION('Axis2P3D XDirection',(0.,1.,0.)) ;
#306=DIRECTION('Axis2P3D Direction',(1.,0.,0.)) ;
#315=DIRECTION('Vector Direction',(1.,0.,0.)) ;
#322=DIRECTION('Axis2P3D Direction',(1.,0.,0.)) ;
#329=DIRECTION('Vector Direction',(1.,0.,0.)) ;
#341=DIRECTION('Axis2P3D Direction',(1.,0.,0.)) ;
#346=DIRECTION('Axis2P3D Direction',(1.,0.,0.)) ;
#358=DIRECTION('Axis2P3D Direction',(1.,0.,0.)) ;
#359=DIRECTION('Axis2P3D XDirection',(0.,1.,0.)) ;
#363=DIRECTION('Axis2P3D Direction',(1.,0.,0.)) ;
#372=DIRECTION('Vector Direction',(1.,0.,0.)) ;
#379=DIRECTION('Axis2P3D Direction',(1.,0.,0.)) ;
#386=DIRECTION('Vector Direction',(1.,0.,0.)) ;
#398=DIRECTION('Axis2P3D Direction',(1.,0.,0.)) ;
#403=DIRECTION('Axis2P3D Direction',(1.,0.,0.)) ;
#415=DIRECTION('Axis2P3D Direction',(1.,0.,0.)) ;
#416=DIRECTION('Axis2P3D XDirection',(0.,-1.,1.22460635382E-016)) ;
#420=DIRECTION('Axis2P3D Direction',(1.,0.,0.)) ;
#429=DIRECTION('Vector Direction',(1.,0.,0.)) ;
#436=DIRECTION('Axis2P3D Direction',(1.,0.,0.)) ;
#443=DIRECTION('Vector Direction',(1.,0.,0.)) ;
#455=DIRECTION('Axis2P3D Direction',(1.,0.,0.)) ;
#460=DIRECTION('Axis2P3D Direction',(1.,0.,0.)) ;
#472=DIRECTION('Axis2P3D Direction',(1.,0.,0.)) ;
#473=DIRECTION('Axis2P3D XDirection',(0.,1.,0.)) ;
#500=DIRECTION('Axis2P3D Direction',(1.,0.,0.)) ;
#501=DIRECTION('Axis2P3D XDirection',(0.,1.,0.)) ;
#48=AXIS2_PLACEMENT_3D(' ',#47,$,$) ;
#55=AXIS2_PLACEMENT_3D('Cylinder Axis2P3D',#52,#53,#54) ;
#68=AXIS2_PLACEMENT_3D('Circle Axis2P3D',#66,#67,$) ;
#82=AXIS2_PLACEMENT_3D('Circle Axis2P3D',#80,#81,$) ;
#95=AXIS2_PLACEMENT_3D('Plane Axis2P3D',#92,#93,#94) ;
#126=AXIS2_PLACEMENT_3D('Cylinder Axis2P3D',#123,#124,#125) ;
#130=AXIS2_PLACEMENT_3D('Circle Axis2P3D',#128,#129,$) ;
#144=AXIS2_PLACEMENT_3D('Circle Axis2P3D',#142,#143,$) ;
#157=AXIS2_PLACEMENT_3D('Plane Axis2P3D',#154,#155,#156) ;
#188=AXIS2_PLACEMENT_3D('Cylinder Axis2P3D',#185,#186,#187) ;
#192=AXIS2_PLACEMENT_3D('Circle Axis2P3D',#190,#191,$) ;
#206=AXIS2_PLACEMENT_3D('Circle Axis2P3D',#204,#205,$) ;
#219=AXIS2_PLACEMENT_3D('Plane Axis2P3D',#216,#217,#218) ;
#250=AXIS2_PLACEMENT_3D('Cylinder Axis2P3D',#247,#248,#249) ;
#254=AXIS2_PLACEMENT_3D('Circle Axis2P3D',#252,#253,$) ;
#268=AXIS2_PLACEMENT_3D('Circle Axis2P3D',#266,#267,$) ;
#281=AXIS2_PLACEMENT_3D('Plane Axis2P3D',#278,#279,#280) ;
#303=AXIS2_PLACEMENT_3D('Cylinder Axis2P3D',#300,#301,#302) ;
#307=AXIS2_PLACEMENT_3D('Circle Axis2P3D',#305,#306,$) ;
#323=AXIS2_PLACEMENT_3D('Circle Axis2P3D',#321,#322,$) ;
#342=AXIS2_PLACEMENT_3D('Circle Axis2P3D',#340,#341,$) ;
#347=AXIS2_PLACEMENT_3D('Circle Axis2P3D',#345,#346,$) ;
#360=AXIS2_PLACEMENT_3D('Cylinder Axis2P3D',#357,#358,#359) ;
#364=AXIS2_PLACEMENT_3D('Circle Axis2P3D',#362,#363,$) ;
#380=AXIS2_PLACEMENT_3D('Circle Axis2P3D',#378,#379,$) ;
#399=AXIS2_PLACEMENT_3D('Circle Axis2P3D',#397,#398,$) ;
#404=AXIS2_PLACEMENT_3D('Circle Axis2P3D',#402,#403,$) ;
#417=AXIS2_PLACEMENT_3D('Cylinder Axis2P3D',#414,#415,#416) ;
#421=AXIS2_PLACEMENT_3D('Circle Axis2P3D',#419,#420,$) ;
#437=AXIS2_PLACEMENT_3D('Circle Axis2P3D',#435,#436,$) ;
#456=AXIS2_PLACEMENT_3D('Circle Axis2P3D',#454,#455,$) ;
#461=AXIS2_PLACEMENT_3D('Circle Axis2P3D',#459,#460,$) ;
#474=AXIS2_PLACEMENT_3D('Plane Axis2P3D',#471,#472,#473) ;
#502=AXIS2_PLACEMENT_3D('Plane Axis2P3D',#499,#500,#501) ;
#40=PRODUCT_DEFINITION_SHAPE(' ',' ',#14) ;
#31=APPROVAL_PERSON_ORGANIZATION(#25,#21,#19) ;
#25=PERSON_AND_ORGANIZATION(#22,#23) ;
#22=PERSON(' ',' ',' ',$,$,$) ;
#23=ORGANIZATION(' ',' ',' ') ;
#21=APPROVAL(#20,' ') ;
#20=APPROVAL_STATUS('not_yet_approved') ;
#19=APPROVAL_ROLE('APPROVER') ;
#13=DATE_AND_TIME(#11,#12) ;
#12=LOCAL_TIME(17,42,42.,#10) ;
#10=COORDINATED_UNIVERSAL_TIME_OFFSET(0,0,.AHEAD.) ;
#86=ORIENTED_EDGE('',*,*,#65,.F.) ;
#87=ORIENTED_EDGE('',*,*,#72,.T.) ;
#88=ORIENTED_EDGE('',*,*,#79,.T.) ;
#89=ORIENTED_EDGE('',*,*,#84,.F.) ;
#117=ORIENTED_EDGE('',*,*,#79,.F.) ;
#118=ORIENTED_EDGE('',*,*,#103,.T.) ;
#119=ORIENTED_EDGE('',*,*,#110,.T.) ;
#120=ORIENTED_EDGE('',*,*,#115,.F.) ;
#148=ORIENTED_EDGE('',*,*,#110,.F.) ;
#149=ORIENTED_EDGE('',*,*,#134,.T.) ;
#150=ORIENTED_EDGE('',*,*,#141,.T.) ;
#151=ORIENTED_EDGE('',*,*,#146,.F.) ;
#179=ORIENTED_EDGE('',*,*,#141,.F.) ;
#180=ORIENTED_EDGE('',*,*,#165,.T.) ;
#181=ORIENTED_EDGE('',*,*,#172,.T.) ;
#182=ORIENTED_EDGE('',*,*,#177,.F.) ;
#210=ORIENTED_EDGE('',*,*,#172,.F.) ;
#211=ORIENTED_EDGE('',*,*,#196,.T.) ;
#212=ORIENTED_EDGE('',*,*,#203,.T.) ;
#213=ORIENTED_EDGE('',*,*,#208,.F.) ;
#241=ORIENTED_EDGE('',*,*,#203,.F.) ;
#242=ORIENTED_EDGE('',*,*,#227,.T.) ;
#243=ORIENTED_EDGE('',*,*,#234,.T.) ;
#244=ORIENTED_EDGE('',*,*,#239,.F.) ;
#272=ORIENTED_EDGE('',*,*,#234,.F.) ;
#273=ORIENTED_EDGE('',*,*,#258,.T.) ;
#274=ORIENTED_EDGE('',*,*,#265,.T.) ;
#275=ORIENTED_EDGE('',*,*,#270,.F.) ;
#294=ORIENTED_EDGE('',*,*,#265,.F.) ;
#295=ORIENTED_EDGE('',*,*,#287,.T.) ;
#296=ORIENTED_EDGE('',*,*,#65,.T.) ;
#297=ORIENTED_EDGE('',*,*,#292,.F.) ;
#334=ORIENTED_EDGE('',*,*,#313,.T.) ;
#335=ORIENTED_EDGE('',*,*,#320,.F.) ;
#336=ORIENTED_EDGE('',*,*,#327,.F.) ;
#337=ORIENTED_EDGE('',*,*,#332,.T.) ;
#351=ORIENTED_EDGE('',*,*,#344,.T.) ;
#352=ORIENTED_EDGE('',*,*,#332,.F.) ;
#353=ORIENTED_EDGE('',*,*,#349,.F.) ;
#354=ORIENTED_EDGE('',*,*,#320,.T.) ;
#391=ORIENTED_EDGE('',*,*,#370,.T.) ;
#392=ORIENTED_EDGE('',*,*,#377,.F.) ;
#393=ORIENTED_EDGE('',*,*,#384,.F.) ;
#394=ORIENTED_EDGE('',*,*,#389,.T.) ;
#408=ORIENTED_EDGE('',*,*,#401,.T.) ;
#409=ORIENTED_EDGE('',*,*,#389,.F.) ;
#410=ORIENTED_EDGE('',*,*,#406,.F.) ;
#411=ORIENTED_EDGE('',*,*,#377,.T.) ;
#448=ORIENTED_EDGE('',*,*,#427,.T.) ;
#449=ORIENTED_EDGE('',*,*,#434,.F.) ;
#450=ORIENTED_EDGE('',*,*,#441,.F.) ;
#451=ORIENTED_EDGE('',*,*,#446,.T.) ;
#465=ORIENTED_EDGE('',*,*,#458,.T.) ;
#466=ORIENTED_EDGE('',*,*,#446,.F.) ;
#467=ORIENTED_EDGE('',*,*,#463,.F.) ;
#468=ORIENTED_EDGE('',*,*,#434,.T.) ;
#477=ORIENTED_EDGE('',*,*,#287,.F.) ;
#478=ORIENTED_EDGE('',*,*,#258,.F.) ;
#479=ORIENTED_EDGE('',*,*,#227,.F.) ;
#480=ORIENTED_EDGE('',*,*,#196,.F.) ;
#481=ORIENTED_EDGE('',*,*,#165,.F.) ;
#482=ORIENTED_EDGE('',*,*,#134,.F.) ;
#483=ORIENTED_EDGE('',*,*,#103,.F.) ;
#484=ORIENTED_EDGE('',*,*,#72,.F.) ;
#487=ORIENTED_EDGE('',*,*,#349,.T.) ;
#488=ORIENTED_EDGE('',*,*,#327,.T.) ;
#491=ORIENTED_EDGE('',*,*,#406,.T.) ;
#492=ORIENTED_EDGE('',*,*,#384,.T.) ;
#495=ORIENTED_EDGE('',*,*,#463,.T.) ;
#496=ORIENTED_EDGE('',*,*,#441,.T.) ;
#505=ORIENTED_EDGE('',*,*,#84,.T.) ;
#506=ORIENTED_EDGE('',*,*,#115,.T.) ;
#507=ORIENTED_EDGE('',*,*,#146,.T.) ;
#508=ORIENTED_EDGE('',*,*,#177,.T.) ;
#509=ORIENTED_EDGE('',*,*,#208,.T.) ;
#510=ORIENTED_EDGE('',*,*,#239,.T.) ;
#511=ORIENTED_EDGE('',*,*,#270,.T.) ;
#512=ORIENTED_EDGE('',*,*,#292,.T.) ;
#515=ORIENTED_EDGE('',*,*,#313,.F.) ;
#516=ORIENTED_EDGE('',*,*,#344,.F.) ;
#519=ORIENTED_EDGE('',*,*,#370,.F.) ;
#520=ORIENTED_EDGE('',*,*,#401,.F.) ;
#523=ORIENTED_EDGE('',*,*,#427,.F.) ;
#524=ORIENTED_EDGE('',*,*,#458,.F.) ;
#489=FACE_BOUND('',#486,.T.) ;
#493=FACE_BOUND('',#490,.T.) ;
#497=FACE_BOUND('',#494,.T.) ;
#517=FACE_BOUND('',#514,.T.) ;
#521=FACE_BOUND('',#518,.T.) ;
#525=FACE_BOUND('',#522,.T.) ;
#51=CLOSED_SHELL('Closed Shell',(#91,#122,#153,#184,#215,#246,#277,#299,#339,#356,#396,#413,#453,#470,#498,#526)) ;
#59=VECTOR('Line Direction',#58,1.) ;
#75=VECTOR('Line Direction',#74,1.) ;
#99=VECTOR('Line Direction',#98,1.) ;
#106=VECTOR('Line Direction',#105,1.) ;
#113=VECTOR('Line Direction',#112,1.) ;
#137=VECTOR('Line Direction',#136,1.) ;
#161=VECTOR('Line Direction',#160,1.) ;
#168=VECTOR('Line Direction',#167,1.) ;
#175=VECTOR('Line Direction',#174,1.) ;
#199=VECTOR('Line Direction',#198,1.) ;
#223=VECTOR('Line Direction',#222,1.) ;
#230=VECTOR('Line Direction',#229,1.) ;
#237=VECTOR('Line Direction',#236,1.) ;
#261=VECTOR('Line Direction',#260,1.) ;
#285=VECTOR('Line Direction',#284,1.) ;
#290=VECTOR('Line Direction',#289,1.) ;
#316=VECTOR('Line Direction',#315,1.) ;
#330=VECTOR('Line Direction',#329,1.) ;
#373=VECTOR('Line Direction',#372,1.) ;
#387=VECTOR('Line Direction',#386,1.) ;
#430=VECTOR('Line Direction',#429,1.) ;
#444=VECTOR('Line Direction',#443,1.) ;
#528=ADVANCED_BREP_SHAPE_REPRESENTATION('NONE',(#527),#46) ;
#49=SHAPE_REPRESENTATION(' ',(#48),#46) ;
#91=ADVANCED_FACE('PartBody',(#90),#56,.T.) ;
#122=ADVANCED_FACE('PartBody',(#121),#96,.F.) ;
#153=ADVANCED_FACE('PartBody',(#152),#127,.T.) ;
#184=ADVANCED_FACE('PartBody',(#183),#158,.T.) ;
#215=ADVANCED_FACE('PartBody',(#214),#189,.T.) ;
#246=ADVANCED_FACE('PartBody',(#245),#220,.F.) ;
#277=ADVANCED_FACE('PartBody',(#276),#251,.T.) ;
#299=ADVANCED_FACE('PartBody',(#298),#282,.T.) ;
#339=ADVANCED_FACE('PartBody',(#338),#304,.F.) ;
#356=ADVANCED_FACE('PartBody',(#355),#304,.F.) ;
#396=ADVANCED_FACE('PartBody',(#395),#361,.F.) ;
#413=ADVANCED_FACE('PartBody',(#412),#361,.F.) ;
#453=ADVANCED_FACE('PartBody',(#452),#418,.F.) ;
#470=ADVANCED_FACE('PartBody',(#469),#418,.F.) ;
#498=ADVANCED_FACE('PartBody',(#485,#489,#493,#497),#475,.F.) ;
#526=ADVANCED_FACE('PartBody',(#513,#517,#521,#525),#503,.T.) ;
#4=APPLICATION_PROTOCOL_DEFINITION('international standard','config_control_design',1994,#1) ;
#32=APPROVAL_DATE_TIME(#13,#21) ;
#527=MANIFOLD_SOLID_BREP('PartBody',#51) ;
#11=CALENDAR_DATE(2020,2,8) ;
#30=CC_DESIGN_APPROVAL(#21,(#16,#6,#14)) ;
#18=CC_DESIGN_DATE_AND_TIME_ASSIGNMENT(#13,#17,(#16)) ;
#29=CC_DESIGN_DATE_AND_TIME_ASSIGNMENT(#13,#28,(#14)) ;
#17=DATE_TIME_ROLE('classification_date') ;
#28=DATE_TIME_ROLE('creation_date') ;
#27=CC_DESIGN_PERSON_AND_ORGANIZATION_ASSIGNMENT(#25,#26,(#16)) ;
#33=CC_DESIGN_PERSON_AND_ORGANIZATION_ASSIGNMENT(#25,#34,(#6)) ;
#35=CC_DESIGN_PERSON_AND_ORGANIZATION_ASSIGNMENT(#25,#36,(#6,#14)) ;
#37=CC_DESIGN_PERSON_AND_ORGANIZATION_ASSIGNMENT(#25,#38,(#5)) ;
#26=PERSON_AND_ORGANIZATION_ROLE('classification_officer') ;
#34=PERSON_AND_ORGANIZATION_ROLE('design_supplier') ;
#36=PERSON_AND_ORGANIZATION_ROLE('creator') ;
#38=PERSON_AND_ORGANIZATION_ROLE('design_owner') ;
#39=CC_DESIGN_SECURITY_CLASSIFICATION(#16,(#6)) ;
#69=CIRCLE('generated circle',#68,10.85) ;
#83=CIRCLE('generated circle',#82,10.85) ;
#131=CIRCLE('generated circle',#130,4.15) ;
#145=CIRCLE('generated circle',#144,4.15) ;
#193=CIRCLE('generated circle',#192,10.85) ;
#207=CIRCLE('generated circle',#206,10.85) ;
#255=CIRCLE('generated circle',#254,4.15) ;
#269=CIRCLE('generated circle',#268,4.15) ;
#308=CIRCLE('generated circle',#307,5.7) ;
#324=CIRCLE('generated circle',#323,5.7) ;
#343=CIRCLE('generated circle',#342,5.7) ;
#348=CIRCLE('generated circle',#347,5.7) ;
#365=CIRCLE('generated circle',#364,2.15) ;
#381=CIRCLE('generated circle',#380,2.15) ;
#400=CIRCLE('generated circle',#399,2.15) ;
#405=CIRCLE('generated circle',#404,2.15) ;
#422=CIRCLE('generated circle',#421,2.15) ;
#438=CIRCLE('generated circle',#437,2.15) ;
#457=CIRCLE('generated circle',#456,2.15) ;
#462=CIRCLE('generated circle',#461,2.15) ;
#529=SHAPE_REPRESENTATION_RELATIONSHIP(' ',' ',#49,#528) ;
#56=CYLINDRICAL_SURFACE('generated cylinder',#55,10.85) ;
#127=CYLINDRICAL_SURFACE('generated cylinder',#126,4.15) ;
#189=CYLINDRICAL_SURFACE('generated cylinder',#188,10.85) ;
#251=CYLINDRICAL_SURFACE('generated cylinder',#250,4.15) ;
#304=CYLINDRICAL_SURFACE('generated cylinder',#303,5.7) ;
#361=CYLINDRICAL_SURFACE('generated cylinder',#360,2.15) ;
#418=CYLINDRICAL_SURFACE('generated cylinder',#417,2.15) ;
#3=DESIGN_CONTEXT(' ',#1,'design') ;
#65=EDGE_CURVE('',#62,#64,#60,.T.) ;
#72=EDGE_CURVE('',#62,#71,#69,.T.) ;
#79=EDGE_CURVE('',#71,#78,#76,.T.) ;
#84=EDGE_CURVE('',#64,#78,#83,.T.) ;
#103=EDGE_CURVE('',#71,#102,#100,.F.) ;
#110=EDGE_CURVE('',#102,#109,#107,.T.) ;
#115=EDGE_CURVE('',#78,#109,#114,.F.) ;
#134=EDGE_CURVE('',#102,#133,#131,.T.) ;
#141=EDGE_CURVE('',#133,#140,#138,.T.) ;
#146=EDGE_CURVE('',#109,#140,#145,.T.) ;
#165=EDGE_CURVE('',#133,#164,#162,.T.) ;
#172=EDGE_CURVE('',#164,#171,#169,.T.) ;
#177=EDGE_CURVE('',#140,#171,#176,.T.) ;
#196=EDGE_CURVE('',#164,#195,#193,.T.) ;
#203=EDGE_CURVE('',#195,#202,#200,.T.) ;
#208=EDGE_CURVE('',#171,#202,#207,.T.) ;
#227=EDGE_CURVE('',#195,#226,#224,.F.) ;
#234=EDGE_CURVE('',#226,#233,#231,.T.) ;
#239=EDGE_CURVE('',#202,#233,#238,.F.) ;
#258=EDGE_CURVE('',#226,#257,#255,.T.) ;
#265=EDGE_CURVE('',#257,#264,#262,.T.) ;
#270=EDGE_CURVE('',#233,#264,#269,.T.) ;
#287=EDGE_CURVE('',#257,#62,#286,.T.) ;
#292=EDGE_CURVE('',#264,#64,#291,.T.) ;
#313=EDGE_CURVE('',#310,#312,#308,.T.) ;
#320=EDGE_CURVE('',#319,#312,#317,.T.) ;
#327=EDGE_CURVE('',#326,#319,#324,.T.) ;
#332=EDGE_CURVE('',#326,#310,#331,.T.) ;
#344=EDGE_CURVE('',#312,#310,#343,.T.) ;
#349=EDGE_CURVE('',#319,#326,#348,.T.) ;
#370=EDGE_CURVE('',#367,#369,#365,.T.) ;
#377=EDGE_CURVE('',#376,#369,#374,.T.) ;
#384=EDGE_CURVE('',#383,#376,#381,.T.) ;
#389=EDGE_CURVE('',#383,#367,#388,.T.) ;
#401=EDGE_CURVE('',#369,#367,#400,.T.) ;
#406=EDGE_CURVE('',#376,#383,#405,.T.) ;
#427=EDGE_CURVE('',#424,#426,#422,.T.) ;
#434=EDGE_CURVE('',#433,#426,#431,.T.) ;
#441=EDGE_CURVE('',#440,#433,#438,.T.) ;
#446=EDGE_CURVE('',#440,#424,#445,.T.) ;
#458=EDGE_CURVE('',#426,#424,#457,.T.) ;
#463=EDGE_CURVE('',#433,#440,#462,.T.) ;
#85=EDGE_LOOP('',(#86,#87,#88,#89)) ;
#116=EDGE_LOOP('',(#117,#118,#119,#120)) ;
#147=EDGE_LOOP('',(#148,#149,#150,#151)) ;
#178=EDGE_LOOP('',(#179,#180,#181,#182)) ;
#209=EDGE_LOOP('',(#210,#211,#212,#213)) ;
#240=EDGE_LOOP('',(#241,#242,#243,#244)) ;
#271=EDGE_LOOP('',(#272,#273,#274,#275)) ;
#293=EDGE_LOOP('',(#294,#295,#296,#297)) ;
#333=EDGE_LOOP('',(#334,#335,#336,#337)) ;
#350=EDGE_LOOP('',(#351,#352,#353,#354)) ;
#390=EDGE_LOOP('',(#391,#392,#393,#394)) ;
#407=EDGE_LOOP('',(#408,#409,#410,#411)) ;
#447=EDGE_LOOP('',(#448,#449,#450,#451)) ;
#464=EDGE_LOOP('',(#465,#466,#467,#468)) ;
#476=EDGE_LOOP('',(#477,#478,#479,#480,#481,#482,#483,#484)) ;
#486=EDGE_LOOP('',(#487,#488)) ;
#490=EDGE_LOOP('',(#491,#492)) ;
#494=EDGE_LOOP('',(#495,#496)) ;
#504=EDGE_LOOP('',(#505,#506,#507,#508,#509,#510,#511,#512)) ;
#514=EDGE_LOOP('',(#515,#516)) ;
#518=EDGE_LOOP('',(#519,#520)) ;
#522=EDGE_LOOP('',(#523,#524)) ;
#90=FACE_OUTER_BOUND('',#85,.T.) ;
#121=FACE_OUTER_BOUND('',#116,.T.) ;
#152=FACE_OUTER_BOUND('',#147,.T.) ;
#183=FACE_OUTER_BOUND('',#178,.T.) ;
#214=FACE_OUTER_BOUND('',#209,.T.) ;
#245=FACE_OUTER_BOUND('',#240,.T.) ;
#276=FACE_OUTER_BOUND('',#271,.T.) ;
#298=FACE_OUTER_BOUND('',#293,.T.) ;
#338=FACE_OUTER_BOUND('',#333,.T.) ;
#355=FACE_OUTER_BOUND('',#350,.T.) ;
#395=FACE_OUTER_BOUND('',#390,.T.) ;
#412=FACE_OUTER_BOUND('',#407,.T.) ;
#452=FACE_OUTER_BOUND('',#447,.T.) ;
#469=FACE_OUTER_BOUND('',#464,.T.) ;
#485=FACE_OUTER_BOUND('',#476,.T.) ;
#513=FACE_OUTER_BOUND('',#504,.T.) ;
#45=UNCERTAINTY_MEASURE_WITH_UNIT(LENGTH_MEASURE(0.005),#41,'distance_accuracy_value','CONFUSED CURVE UNCERTAINTY') ;
#60=LINE('Line',#57,#59) ;
#76=LINE('Line',#73,#75) ;
#100=LINE('Line',#97,#99) ;
#107=LINE('Line',#104,#106) ;
#114=LINE('Line',#111,#113) ;
#138=LINE('Line',#135,#137) ;
#162=LINE('Line',#159,#161) ;
#169=LINE('Line',#166,#168) ;
#176=LINE('Line',#173,#175) ;
#200=LINE('Line',#197,#199) ;
#224=LINE('Line',#221,#223) ;
#231=LINE('Line',#228,#230) ;
#238=LINE('Line',#235,#237) ;
#262=LINE('Line',#259,#261) ;
#286=LINE('Line',#283,#285) ;
#291=LINE('Line',#288,#290) ;
#317=LINE('Line',#314,#316) ;
#331=LINE('Line',#328,#330) ;
#374=LINE('Line',#371,#373) ;
#388=LINE('Line',#385,#387) ;
#431=LINE('Line',#428,#430) ;
#445=LINE('Line',#442,#444) ;
#2=MECHANICAL_CONTEXT(' ',#1,'mechanical') ;
#24=PERSONAL_ADDRESS(' ',' ',' ',' ',' ',' ',' ',' ',' ',' ',' ',' ',(#22),' ') ;
#96=PLANE('',#95) ;
#158=PLANE('',#157) ;
#220=PLANE('',#219) ;
#282=PLANE('',#281) ;
#475=PLANE('',#474) ;
#503=PLANE('',#502) ;
#43=PLANE_ANGLE_MEASURE_WITH_UNIT(PLANE_ANGLE_MEASURE(0.0174532925199),#42) ;
#7=PRODUCT_CATEGORY('part',$) ;
#9=PRODUCT_CATEGORY_RELATIONSHIP(' ',' ',#7,#8) ;
#6=PRODUCT_DEFINITION_FORMATION_WITH_SPECIFIED_SOURCE('',' ',#5,.NOT_KNOWN.) ;
#8=PRODUCT_RELATED_PRODUCT_CATEGORY('detail',$,(#5)) ;
#50=SHAPE_DEFINITION_REPRESENTATION(#40,#49) ;
#62=VERTEX_POINT('',#61) ;
#64=VERTEX_POINT('',#63) ;
#71=VERTEX_POINT('',#70) ;
#78=VERTEX_POINT('',#77) ;
#102=VERTEX_POINT('',#101) ;
#109=VERTEX_POINT('',#108) ;
#133=VERTEX_POINT('',#132) ;
#140=VERTEX_POINT('',#139) ;
#164=VERTEX_POINT('',#163) ;
#171=VERTEX_POINT('',#170) ;
#195=VERTEX_POINT('',#194) ;
#202=VERTEX_POINT('',#201) ;
#226=VERTEX_POINT('',#225) ;
#233=VERTEX_POINT('',#232) ;
#257=VERTEX_POINT('',#256) ;
#264=VERTEX_POINT('',#263) ;
#310=VERTEX_POINT('',#309) ;
#312=VERTEX_POINT('',#311) ;
#319=VERTEX_POINT('',#318) ;
#326=VERTEX_POINT('',#325) ;
#367=VERTEX_POINT('',#366) ;
#369=VERTEX_POINT('',#368) ;
#376=VERTEX_POINT('',#375) ;
#383=VERTEX_POINT('',#382) ;
#424=VERTEX_POINT('',#423) ;
#426=VERTEX_POINT('',#425) ;
#433=VERTEX_POINT('',#432) ;
#440=VERTEX_POINT('',#439) ;
#41=(LENGTH_UNIT()NAMED_UNIT(*)SI_UNIT(.MILLI.,.METRE.)) ;
#42=(NAMED_UNIT(*)PLANE_ANGLE_UNIT()SI_UNIT($,.RADIAN.)) ;
#44=(NAMED_UNIT(*)SI_UNIT($,.STERADIAN.)SOLID_ANGLE_UNIT()) ;
#46=(GEOMETRIC_REPRESENTATION_CONTEXT(3)GLOBAL_UNCERTAINTY_ASSIGNED_CONTEXT((#45))GLOBAL_UNIT_ASSIGNED_CONTEXT((#41,#42,#44))REPRESENTATION_CONTEXT(' ',' ')) ;
ENDSEC;
END-ISO-10303-21;
