ISO-10303-21;
HEADER;
FILE_DESCRIPTION(('CATIA V5 STEP Exchange'),'2;1');

FILE_NAME('C:\\Users\\Brun C\\Desktop\\Imp 3D\\Embout guidon.stp','2020-08-24T17:18:05+00:00',('none'),('none'),'CATIA Version 5 Release 18 GA (IN-10)','CATIA V5 STEP AP203','none');

FILE_SCHEMA(('CONFIG_CONTROL_DESIGN'));

ENDSEC;
/* file written by CATIA V5R18 */
DATA;
#5=PRODUCT('Embout guidon','','',(#2)) ;
#1=APPLICATION_CONTEXT('configuration controlled 3D design of mechanical parts and assemblies') ;
#14=PRODUCT_DEFINITION(' ',' ',#6,#3) ;
#16=SECURITY_CLASSIFICATION(' ',' ',#15) ;
#15=SECURITY_CLASSIFICATION_LEVEL('unclassified') ;
#47=CARTESIAN_POINT(' ',(0.,0.,0.)) ;
#52=CARTESIAN_POINT('Axis2P3D Location',(0.,17.,0.)) ;
#57=CARTESIAN_POINT('Axis2P3D Location',(0.,0.,0.)) ;
#61=CARTESIAN_POINT('Vertex',(6.71195754046,0.,12.2861558665)) ;
#63=CARTESIAN_POINT('Vertex',(-6.71195754046,0.,-12.2861558665)) ;
#66=CARTESIAN_POINT('Line Origine',(6.71195754046,2.,12.2861558665)) ;
#70=CARTESIAN_POINT('Vertex',(6.71195754046,4.,12.2861558665)) ;
#73=CARTESIAN_POINT('Axis2P3D Location',(0.,4.,0.)) ;
#77=CARTESIAN_POINT('Vertex',(-6.71195754046,4.,-12.2861558665)) ;
#80=CARTESIAN_POINT('Line Origine',(-6.71195754046,2.,-12.2861558665)) ;
#92=CARTESIAN_POINT('Axis2P3D Location',(0.,0.,0.)) ;
#97=CARTESIAN_POINT('Axis2P3D Location',(0.,4.,0.)) ;
#109=CARTESIAN_POINT('Axis2P3D Location',(0.,17.,0.)) ;
#114=CARTESIAN_POINT('Axis2P3D Location',(0.,4.,0.)) ;
#118=CARTESIAN_POINT('Vertex',(1.67798938511,4.,3.07153896662)) ;
#120=CARTESIAN_POINT('Vertex',(-1.67798938511,4.,-3.07153896662)) ;
#123=CARTESIAN_POINT('Line Origine',(1.67798938511,16.,3.07153896662)) ;
#127=CARTESIAN_POINT('Vertex',(1.67798938511,28.,3.07153896662)) ;
#130=CARTESIAN_POINT('Axis2P3D Location',(0.,28.,0.)) ;
#134=CARTESIAN_POINT('Vertex',(-1.67798938511,28.,-3.07153896662)) ;
#137=CARTESIAN_POINT('Line Origine',(-1.67798938511,16.,-3.07153896662)) ;
#149=CARTESIAN_POINT('Axis2P3D Location',(0.,4.,0.)) ;
#154=CARTESIAN_POINT('Axis2P3D Location',(0.,28.,0.)) ;
#166=CARTESIAN_POINT('Axis2P3D Location',(0.,17.,0.)) ;
#171=CARTESIAN_POINT('Axis2P3D Location',(0.,28.,0.)) ;
#175=CARTESIAN_POINT('Vertex',(2.63684046232,28.,4.8267040904)) ;
#177=CARTESIAN_POINT('Vertex',(-2.63684046232,28.,-4.8267040904)) ;
#180=CARTESIAN_POINT('Line Origine',(2.63684046232,30.75,4.8267040904)) ;
#184=CARTESIAN_POINT('Vertex',(2.63684046232,33.5,4.8267040904)) ;
#187=CARTESIAN_POINT('Axis2P3D Location',(0.,33.5,0.)) ;
#191=CARTESIAN_POINT('Vertex',(-2.63684046232,33.5,-4.8267040904)) ;
#194=CARTESIAN_POINT('Line Origine',(-2.63684046232,30.75,-4.8267040904)) ;
#206=CARTESIAN_POINT('Axis2P3D Location',(0.,28.,0.)) ;
#211=CARTESIAN_POINT('Axis2P3D Location',(0.,33.5,0.)) ;
#223=CARTESIAN_POINT('Axis2P3D Location',(0.,33.5,0.)) ;
#228=CARTESIAN_POINT('Axis2P3D Location',(2.87655323163,33.5,5.26549537134)) ;
#232=CARTESIAN_POINT('Vertex',(3.04784670118,33.849777891,5.57904596417)) ;
#235=CARTESIAN_POINT('Axis2P3D Location',(0.,33.849777891,0.)) ;
#239=CARTESIAN_POINT('Vertex',(-3.04784670118,33.849777891,-5.57904596417)) ;
#242=CARTESIAN_POINT('Axis2P3D Location',(-2.87655323163,33.5,-5.26549537134)) ;
#254=CARTESIAN_POINT('Axis2P3D Location',(0.,33.849777891,0.)) ;
#266=CARTESIAN_POINT('Axis2P3D Location',(0.,0.,16.)) ;
#271=CARTESIAN_POINT('Axis2P3D Location',(0.,0.,0.)) ;
#275=CARTESIAN_POINT('Vertex',(7.67080861767,7.1054273576E-015,14.0413209902)) ;
#277=CARTESIAN_POINT('Vertex',(-7.67080861767,7.1054273576E-015,-14.0413209902)) ;
#280=CARTESIAN_POINT('Axis2P3D Location',(0.,0.,0.)) ;
#294=CARTESIAN_POINT('Axis2P3D Location',(0.,4.,14.)) ;
#308=CARTESIAN_POINT('Axis2P3D Location',(0.,28.,5.5)) ;
#322=CARTESIAN_POINT('Axis2P3D Location',(0.,33.849777891,0.)) ;
#327=CARTESIAN_POINT('Line Origine',(-5.35932765942,28.9248889455,-9.81018347721)) ;
#331=CARTESIAN_POINT('Vertex',(-7.39713141868,24.5831022778,-13.5403582378)) ;
#334=CARTESIAN_POINT('Line Origine',(5.35932765942,28.9248889455,9.81018347721)) ;
#338=CARTESIAN_POINT('Vertex',(7.39713141868,24.5831022778,13.5403582378)) ;
#341=CARTESIAN_POINT('Axis2P3D Location',(0.,24.5831022778,0.)) ;
#353=CARTESIAN_POINT('Axis2P3D Location',(0.,24.5831022778,0.)) ;
#365=CARTESIAN_POINT('Axis2P3D Location',(0.,17.,0.)) ;
#370=CARTESIAN_POINT('Line Origine',(7.67080861767,12.,14.0413209902)) ;
#374=CARTESIAN_POINT('Vertex',(7.67080861767,23.1839907139,14.0413209902)) ;
#377=CARTESIAN_POINT('Line Origine',(-7.67080861767,12.,-14.0413209902)) ;
#381=CARTESIAN_POINT('Vertex',(-7.67080861767,23.1839907139,-14.0413209902)) ;
#384=CARTESIAN_POINT('Axis2P3D Location',(0.,23.1839907139,0.)) ;
#396=CARTESIAN_POINT('Axis2P3D Location',(0.,23.1839907139,0.)) ;
#408=CARTESIAN_POINT('Axis2P3D Location',(0.,23.1839907139,1.7763568394E-015)) ;
#413=CARTESIAN_POINT('Axis2P3D Location',(-6.71195754046,23.1839907139,-12.2861558665)) ;
#418=CARTESIAN_POINT('Axis2P3D Location',(6.71195754046,23.1839907139,12.2861558665)) ;
#430=CARTESIAN_POINT('Axis2P3D Location',(-3.5527136788E-015,23.1839907139,0.)) ;
#53=DIRECTION('Axis2P3D Direction',(0.,1.,0.)) ;
#54=DIRECTION('Axis2P3D XDirection',(0.479425538604,-0.,0.87758256189)) ;
#58=DIRECTION('Axis2P3D Direction',(0.,1.,0.)) ;
#67=DIRECTION('Vector Direction',(0.,1.,0.)) ;
#74=DIRECTION('Axis2P3D Direction',(0.,1.,0.)) ;
#81=DIRECTION('Vector Direction',(0.,1.,0.)) ;
#93=DIRECTION('Axis2P3D Direction',(0.,1.,0.)) ;
#98=DIRECTION('Axis2P3D Direction',(0.,1.,0.)) ;
#110=DIRECTION('Axis2P3D Direction',(0.,1.,0.)) ;
#111=DIRECTION('Axis2P3D XDirection',(0.479425538604,-0.,0.87758256189)) ;
#115=DIRECTION('Axis2P3D Direction',(0.,1.,0.)) ;
#124=DIRECTION('Vector Direction',(0.,1.,0.)) ;
#131=DIRECTION('Axis2P3D Direction',(0.,1.,0.)) ;
#138=DIRECTION('Vector Direction',(0.,1.,0.)) ;
#150=DIRECTION('Axis2P3D Direction',(0.,1.,0.)) ;
#155=DIRECTION('Axis2P3D Direction',(0.,1.,0.)) ;
#167=DIRECTION('Axis2P3D Direction',(0.,1.,0.)) ;
#168=DIRECTION('Axis2P3D XDirection',(0.479425538604,-0.,0.87758256189)) ;
#172=DIRECTION('Axis2P3D Direction',(0.,1.,0.)) ;
#181=DIRECTION('Vector Direction',(0.,1.,0.)) ;
#188=DIRECTION('Axis2P3D Direction',(0.,1.,0.)) ;
#195=DIRECTION('Vector Direction',(0.,1.,0.)) ;
#207=DIRECTION('Axis2P3D Direction',(0.,1.,0.)) ;
#212=DIRECTION('Axis2P3D Direction',(0.,1.,0.)) ;
#224=DIRECTION('Axis2P3D Direction',(0.,1.,0.)) ;
#225=DIRECTION('Axis2P3D XDirection',(0.479425538604,0.,0.87758256189)) ;
#229=DIRECTION('Axis2P3D Direction',(-0.87758256189,0.,0.479425538604)) ;
#236=DIRECTION('Axis2P3D Direction',(0.,1.,0.)) ;
#243=DIRECTION('Axis2P3D Direction',(0.87758256189,0.,-0.479425538604)) ;
#255=DIRECTION('Axis2P3D Direction',(0.,1.,0.)) ;
#267=DIRECTION('Axis2P3D Direction',(-0.,1.,0.)) ;
#268=DIRECTION('Axis2P3D XDirection',(1.,0.,0.)) ;
#272=DIRECTION('Axis2P3D Direction',(-0.,1.,0.)) ;
#281=DIRECTION('Axis2P3D Direction',(-0.,1.,0.)) ;
#295=DIRECTION('Axis2P3D Direction',(-0.,1.,0.)) ;
#296=DIRECTION('Axis2P3D XDirection',(1.,0.,0.)) ;
#309=DIRECTION('Axis2P3D Direction',(-0.,1.,0.)) ;
#310=DIRECTION('Axis2P3D XDirection',(1.,0.,0.)) ;
#323=DIRECTION('Axis2P3D Direction',(-0.,-1.,-0.)) ;
#324=DIRECTION('Axis2P3D XDirection',(0.479425538604,0.,0.87758256189)) ;
#328=DIRECTION('Vector Direction',(-0.335384907557,-0.714577992877,-0.613917955332)) ;
#335=DIRECTION('Vector Direction',(0.335384907557,-0.714577992877,0.613917955332)) ;
#342=DIRECTION('Axis2P3D Direction',(0.,-1.,-0.)) ;
#354=DIRECTION('Axis2P3D Direction',(0.,-1.,-0.)) ;
#366=DIRECTION('Axis2P3D Direction',(0.,1.,0.)) ;
#367=DIRECTION('Axis2P3D XDirection',(0.479425538604,-0.,0.87758256189)) ;
#371=DIRECTION('Vector Direction',(0.,1.,0.)) ;
#378=DIRECTION('Vector Direction',(0.,1.,0.)) ;
#385=DIRECTION('Axis2P3D Direction',(0.,1.,0.)) ;
#397=DIRECTION('Axis2P3D Direction',(0.,1.,0.)) ;
#409=DIRECTION('Axis2P3D Direction',(0.,-1.,0.)) ;
#410=DIRECTION('Axis2P3D XDirection',(0.479425538604,0.,0.87758256189)) ;
#414=DIRECTION('Axis2P3D Direction',(-0.87758256189,0.,0.479425538604)) ;
#419=DIRECTION('Axis2P3D Direction',(0.87758256189,0.,-0.479425538604)) ;
#431=DIRECTION('Axis2P3D Direction',(0.,1.,-0.)) ;
#432=DIRECTION('Axis2P3D XDirection',(0.479425538604,0.,0.87758256189)) ;
#48=AXIS2_PLACEMENT_3D(' ',#47,$,$) ;
#55=AXIS2_PLACEMENT_3D('Cylinder Axis2P3D',#52,#53,#54) ;
#59=AXIS2_PLACEMENT_3D('Circle Axis2P3D',#57,#58,$) ;
#75=AXIS2_PLACEMENT_3D('Circle Axis2P3D',#73,#74,$) ;
#94=AXIS2_PLACEMENT_3D('Circle Axis2P3D',#92,#93,$) ;
#99=AXIS2_PLACEMENT_3D('Circle Axis2P3D',#97,#98,$) ;
#112=AXIS2_PLACEMENT_3D('Cylinder Axis2P3D',#109,#110,#111) ;
#116=AXIS2_PLACEMENT_3D('Circle Axis2P3D',#114,#115,$) ;
#132=AXIS2_PLACEMENT_3D('Circle Axis2P3D',#130,#131,$) ;
#151=AXIS2_PLACEMENT_3D('Circle Axis2P3D',#149,#150,$) ;
#156=AXIS2_PLACEMENT_3D('Circle Axis2P3D',#154,#155,$) ;
#169=AXIS2_PLACEMENT_3D('Cylinder Axis2P3D',#166,#167,#168) ;
#173=AXIS2_PLACEMENT_3D('Circle Axis2P3D',#171,#172,$) ;
#189=AXIS2_PLACEMENT_3D('Circle Axis2P3D',#187,#188,$) ;
#208=AXIS2_PLACEMENT_3D('Circle Axis2P3D',#206,#207,$) ;
#213=AXIS2_PLACEMENT_3D('Circle Axis2P3D',#211,#212,$) ;
#226=AXIS2_PLACEMENT_3D('Torus Axis2P3D',#223,#224,#225) ;
#230=AXIS2_PLACEMENT_3D('Circle Axis2P3D',#228,#229,$) ;
#237=AXIS2_PLACEMENT_3D('Circle Axis2P3D',#235,#236,$) ;
#244=AXIS2_PLACEMENT_3D('Circle Axis2P3D',#242,#243,$) ;
#256=AXIS2_PLACEMENT_3D('Circle Axis2P3D',#254,#255,$) ;
#269=AXIS2_PLACEMENT_3D('Plane Axis2P3D',#266,#267,#268) ;
#273=AXIS2_PLACEMENT_3D('Circle Axis2P3D',#271,#272,$) ;
#282=AXIS2_PLACEMENT_3D('Circle Axis2P3D',#280,#281,$) ;
#297=AXIS2_PLACEMENT_3D('Plane Axis2P3D',#294,#295,#296) ;
#311=AXIS2_PLACEMENT_3D('Plane Axis2P3D',#308,#309,#310) ;
#325=AXIS2_PLACEMENT_3D('Cone Axis2P3D',#322,#323,#324) ;
#343=AXIS2_PLACEMENT_3D('Circle Axis2P3D',#341,#342,$) ;
#355=AXIS2_PLACEMENT_3D('Circle Axis2P3D',#353,#354,$) ;
#368=AXIS2_PLACEMENT_3D('Cylinder Axis2P3D',#365,#366,#367) ;
#386=AXIS2_PLACEMENT_3D('Circle Axis2P3D',#384,#385,$) ;
#398=AXIS2_PLACEMENT_3D('Circle Axis2P3D',#396,#397,$) ;
#411=AXIS2_PLACEMENT_3D('Torus Axis2P3D',#408,#409,#410) ;
#415=AXIS2_PLACEMENT_3D('Circle Axis2P3D',#413,#414,$) ;
#420=AXIS2_PLACEMENT_3D('Circle Axis2P3D',#418,#419,$) ;
#433=AXIS2_PLACEMENT_3D('Torus Axis2P3D',#430,#431,#432) ;
#40=PRODUCT_DEFINITION_SHAPE(' ',' ',#14) ;
#31=APPROVAL_PERSON_ORGANIZATION(#25,#21,#19) ;
#25=PERSON_AND_ORGANIZATION(#22,#23) ;
#22=PERSON(' ',' ',' ',$,$,$) ;
#23=ORGANIZATION(' ',' ',' ') ;
#21=APPROVAL(#20,' ') ;
#20=APPROVAL_STATUS('not_yet_approved') ;
#19=APPROVAL_ROLE('APPROVER') ;
#13=DATE_AND_TIME(#11,#12) ;
#12=LOCAL_TIME(19,18,5.,#10) ;
#10=COORDINATED_UNIVERSAL_TIME_OFFSET(0,0,.AHEAD.) ;
#86=ORIENTED_EDGE('',*,*,#65,.F.) ;
#87=ORIENTED_EDGE('',*,*,#72,.T.) ;
#88=ORIENTED_EDGE('',*,*,#79,.T.) ;
#89=ORIENTED_EDGE('',*,*,#84,.F.) ;
#103=ORIENTED_EDGE('',*,*,#96,.F.) ;
#104=ORIENTED_EDGE('',*,*,#84,.T.) ;
#105=ORIENTED_EDGE('',*,*,#101,.T.) ;
#106=ORIENTED_EDGE('',*,*,#72,.F.) ;
#143=ORIENTED_EDGE('',*,*,#122,.F.) ;
#144=ORIENTED_EDGE('',*,*,#129,.T.) ;
#145=ORIENTED_EDGE('',*,*,#136,.T.) ;
#146=ORIENTED_EDGE('',*,*,#141,.F.) ;
#160=ORIENTED_EDGE('',*,*,#153,.F.) ;
#161=ORIENTED_EDGE('',*,*,#141,.T.) ;
#162=ORIENTED_EDGE('',*,*,#158,.T.) ;
#163=ORIENTED_EDGE('',*,*,#129,.F.) ;
#200=ORIENTED_EDGE('',*,*,#179,.F.) ;
#201=ORIENTED_EDGE('',*,*,#186,.T.) ;
#202=ORIENTED_EDGE('',*,*,#193,.T.) ;
#203=ORIENTED_EDGE('',*,*,#198,.F.) ;
#217=ORIENTED_EDGE('',*,*,#210,.F.) ;
#218=ORIENTED_EDGE('',*,*,#198,.T.) ;
#219=ORIENTED_EDGE('',*,*,#215,.T.) ;
#220=ORIENTED_EDGE('',*,*,#186,.F.) ;
#248=ORIENTED_EDGE('',*,*,#193,.F.) ;
#249=ORIENTED_EDGE('',*,*,#234,.T.) ;
#250=ORIENTED_EDGE('',*,*,#241,.T.) ;
#251=ORIENTED_EDGE('',*,*,#246,.F.) ;
#260=ORIENTED_EDGE('',*,*,#215,.F.) ;
#261=ORIENTED_EDGE('',*,*,#246,.T.) ;
#262=ORIENTED_EDGE('',*,*,#258,.T.) ;
#263=ORIENTED_EDGE('',*,*,#234,.F.) ;
#286=ORIENTED_EDGE('',*,*,#279,.F.) ;
#287=ORIENTED_EDGE('',*,*,#284,.F.) ;
#290=ORIENTED_EDGE('',*,*,#96,.T.) ;
#291=ORIENTED_EDGE('',*,*,#65,.T.) ;
#300=ORIENTED_EDGE('',*,*,#79,.F.) ;
#301=ORIENTED_EDGE('',*,*,#101,.F.) ;
#304=ORIENTED_EDGE('',*,*,#153,.T.) ;
#305=ORIENTED_EDGE('',*,*,#122,.T.) ;
#314=ORIENTED_EDGE('',*,*,#210,.T.) ;
#315=ORIENTED_EDGE('',*,*,#179,.T.) ;
#318=ORIENTED_EDGE('',*,*,#136,.F.) ;
#319=ORIENTED_EDGE('',*,*,#158,.F.) ;
#347=ORIENTED_EDGE('',*,*,#333,.F.) ;
#348=ORIENTED_EDGE('',*,*,#241,.F.) ;
#349=ORIENTED_EDGE('',*,*,#340,.T.) ;
#350=ORIENTED_EDGE('',*,*,#345,.T.) ;
#359=ORIENTED_EDGE('',*,*,#340,.F.) ;
#360=ORIENTED_EDGE('',*,*,#258,.F.) ;
#361=ORIENTED_EDGE('',*,*,#333,.T.) ;
#362=ORIENTED_EDGE('',*,*,#357,.T.) ;
#390=ORIENTED_EDGE('',*,*,#376,.T.) ;
#391=ORIENTED_EDGE('',*,*,#279,.T.) ;
#392=ORIENTED_EDGE('',*,*,#383,.F.) ;
#393=ORIENTED_EDGE('',*,*,#388,.F.) ;
#402=ORIENTED_EDGE('',*,*,#383,.T.) ;
#403=ORIENTED_EDGE('',*,*,#284,.T.) ;
#404=ORIENTED_EDGE('',*,*,#376,.F.) ;
#405=ORIENTED_EDGE('',*,*,#400,.F.) ;
#424=ORIENTED_EDGE('',*,*,#417,.T.) ;
#425=ORIENTED_EDGE('',*,*,#400,.T.) ;
#426=ORIENTED_EDGE('',*,*,#422,.F.) ;
#427=ORIENTED_EDGE('',*,*,#357,.F.) ;
#436=ORIENTED_EDGE('',*,*,#422,.T.) ;
#437=ORIENTED_EDGE('',*,*,#388,.T.) ;
#438=ORIENTED_EDGE('',*,*,#417,.F.) ;
#439=ORIENTED_EDGE('',*,*,#345,.F.) ;
#292=FACE_BOUND('',#289,.T.) ;
#306=FACE_BOUND('',#303,.T.) ;
#320=FACE_BOUND('',#317,.T.) ;
#51=CLOSED_SHELL('Closed Shell',(#91,#108,#148,#165,#205,#222,#253,#265,#293,#307,#321,#352,#364,#395,#407,#429,#441)) ;
#68=VECTOR('Line Direction',#67,1.) ;
#82=VECTOR('Line Direction',#81,1.) ;
#125=VECTOR('Line Direction',#124,1.) ;
#139=VECTOR('Line Direction',#138,1.) ;
#182=VECTOR('Line Direction',#181,1.) ;
#196=VECTOR('Line Direction',#195,1.) ;
#329=VECTOR('Line Direction',#328,1.) ;
#336=VECTOR('Line Direction',#335,1.) ;
#372=VECTOR('Line Direction',#371,1.) ;
#379=VECTOR('Line Direction',#378,1.) ;
#443=ADVANCED_BREP_SHAPE_REPRESENTATION('NONE',(#442),#46) ;
#49=SHAPE_REPRESENTATION(' ',(#48),#46) ;
#91=ADVANCED_FACE('Corps principal',(#90),#56,.F.) ;
#108=ADVANCED_FACE('Corps principal',(#107),#56,.F.) ;
#148=ADVANCED_FACE('Corps principal',(#147),#113,.F.) ;
#165=ADVANCED_FACE('Corps principal',(#164),#113,.F.) ;
#205=ADVANCED_FACE('Corps principal',(#204),#170,.F.) ;
#222=ADVANCED_FACE('Corps principal',(#221),#170,.F.) ;
#253=ADVANCED_FACE('Corps principal',(#252),#227,.T.) ;
#265=ADVANCED_FACE('Corps principal',(#264),#227,.T.) ;
#293=ADVANCED_FACE('Corps principal',(#288,#292),#270,.F.) ;
#307=ADVANCED_FACE('Corps principal',(#302,#306),#298,.F.) ;
#321=ADVANCED_FACE('Corps principal',(#316,#320),#312,.T.) ;
#352=ADVANCED_FACE('Corps principal',(#351),#326,.T.) ;
#364=ADVANCED_FACE('Corps principal',(#363),#326,.T.) ;
#395=ADVANCED_FACE('Corps principal',(#394),#369,.T.) ;
#407=ADVANCED_FACE('Corps principal',(#406),#369,.T.) ;
#429=ADVANCED_FACE('Corps principal',(#428),#412,.T.) ;
#441=ADVANCED_FACE('Corps principal',(#440),#434,.T.) ;
#4=APPLICATION_PROTOCOL_DEFINITION('international standard','config_control_design',1994,#1) ;
#32=APPROVAL_DATE_TIME(#13,#21) ;
#442=MANIFOLD_SOLID_BREP('Corps principal',#51) ;
#11=CALENDAR_DATE(2020,24,8) ;
#30=CC_DESIGN_APPROVAL(#21,(#16,#6,#14)) ;
#18=CC_DESIGN_DATE_AND_TIME_ASSIGNMENT(#13,#17,(#16)) ;
#29=CC_DESIGN_DATE_AND_TIME_ASSIGNMENT(#13,#28,(#14)) ;
#17=DATE_TIME_ROLE('classification_date') ;
#28=DATE_TIME_ROLE('creation_date') ;
#27=CC_DESIGN_PERSON_AND_ORGANIZATION_ASSIGNMENT(#25,#26,(#16)) ;
#33=CC_DESIGN_PERSON_AND_ORGANIZATION_ASSIGNMENT(#25,#34,(#6)) ;
#35=CC_DESIGN_PERSON_AND_ORGANIZATION_ASSIGNMENT(#25,#36,(#6,#14)) ;
#37=CC_DESIGN_PERSON_AND_ORGANIZATION_ASSIGNMENT(#25,#38,(#5)) ;
#26=PERSON_AND_ORGANIZATION_ROLE('classification_officer') ;
#34=PERSON_AND_ORGANIZATION_ROLE('design_supplier') ;
#36=PERSON_AND_ORGANIZATION_ROLE('creator') ;
#38=PERSON_AND_ORGANIZATION_ROLE('design_owner') ;
#39=CC_DESIGN_SECURITY_CLASSIFICATION(#16,(#6)) ;
#60=CIRCLE('generated circle',#59,14.) ;
#76=CIRCLE('generated circle',#75,14.) ;
#95=CIRCLE('generated circle',#94,14.) ;
#100=CIRCLE('generated circle',#99,14.) ;
#117=CIRCLE('generated circle',#116,3.5) ;
#133=CIRCLE('generated circle',#132,3.5) ;
#152=CIRCLE('generated circle',#151,3.5) ;
#157=CIRCLE('generated circle',#156,3.5) ;
#174=CIRCLE('generated circle',#173,5.5) ;
#190=CIRCLE('generated circle',#189,5.5) ;
#209=CIRCLE('generated circle',#208,5.5) ;
#214=CIRCLE('generated circle',#213,5.5) ;
#231=CIRCLE('generated circle',#230,0.5) ;
#238=CIRCLE('generated circle',#237,6.35728899644) ;
#245=CIRCLE('generated circle',#244,0.5) ;
#257=CIRCLE('generated circle',#256,6.35728899644) ;
#274=CIRCLE('generated circle',#273,16.) ;
#283=CIRCLE('generated circle',#282,16.) ;
#344=CIRCLE('generated circle',#343,15.4291559858) ;
#356=CIRCLE('generated circle',#355,15.4291559858) ;
#387=CIRCLE('generated circle',#386,16.) ;
#399=CIRCLE('generated circle',#398,16.) ;
#416=CIRCLE('generated circle',#415,2.) ;
#421=CIRCLE('generated circle',#420,2.) ;
#326=CONICAL_SURFACE('Cone',#325,6.35728899644,0.774775656432) ;
#444=SHAPE_REPRESENTATION_RELATIONSHIP(' ',' ',#49,#443) ;
#56=CYLINDRICAL_SURFACE('generated cylinder',#55,14.) ;
#113=CYLINDRICAL_SURFACE('generated cylinder',#112,3.5) ;
#170=CYLINDRICAL_SURFACE('generated cylinder',#169,5.5) ;
#369=CYLINDRICAL_SURFACE('generated cylinder',#368,16.) ;
#227=TOROIDAL_SURFACE('homeo Torus',#226,6.,0.5) ;
#412=TOROIDAL_SURFACE('homeo Torus',#411,14.,2.) ;
#434=TOROIDAL_SURFACE('homeo Torus',#433,14.,2.) ;
#3=DESIGN_CONTEXT(' ',#1,'design') ;
#65=EDGE_CURVE('',#62,#64,#60,.T.) ;
#72=EDGE_CURVE('',#62,#71,#69,.T.) ;
#79=EDGE_CURVE('',#71,#78,#76,.T.) ;
#84=EDGE_CURVE('',#64,#78,#83,.T.) ;
#96=EDGE_CURVE('',#64,#62,#95,.T.) ;
#101=EDGE_CURVE('',#78,#71,#100,.T.) ;
#122=EDGE_CURVE('',#119,#121,#117,.T.) ;
#129=EDGE_CURVE('',#119,#128,#126,.T.) ;
#136=EDGE_CURVE('',#128,#135,#133,.T.) ;
#141=EDGE_CURVE('',#121,#135,#140,.T.) ;
#153=EDGE_CURVE('',#121,#119,#152,.T.) ;
#158=EDGE_CURVE('',#135,#128,#157,.T.) ;
#179=EDGE_CURVE('',#176,#178,#174,.T.) ;
#186=EDGE_CURVE('',#176,#185,#183,.T.) ;
#193=EDGE_CURVE('',#185,#192,#190,.T.) ;
#198=EDGE_CURVE('',#178,#192,#197,.T.) ;
#210=EDGE_CURVE('',#178,#176,#209,.T.) ;
#215=EDGE_CURVE('',#192,#185,#214,.T.) ;
#234=EDGE_CURVE('',#185,#233,#231,.F.) ;
#241=EDGE_CURVE('',#233,#240,#238,.T.) ;
#246=EDGE_CURVE('',#192,#240,#245,.F.) ;
#258=EDGE_CURVE('',#240,#233,#257,.T.) ;
#279=EDGE_CURVE('',#276,#278,#274,.T.) ;
#284=EDGE_CURVE('',#278,#276,#283,.T.) ;
#333=EDGE_CURVE('',#240,#332,#330,.T.) ;
#340=EDGE_CURVE('',#233,#339,#337,.T.) ;
#345=EDGE_CURVE('',#339,#332,#344,.F.) ;
#357=EDGE_CURVE('',#332,#339,#356,.F.) ;
#376=EDGE_CURVE('',#375,#276,#373,.F.) ;
#383=EDGE_CURVE('',#382,#278,#380,.F.) ;
#388=EDGE_CURVE('',#375,#382,#387,.T.) ;
#400=EDGE_CURVE('',#382,#375,#399,.T.) ;
#417=EDGE_CURVE('',#332,#382,#416,.T.) ;
#422=EDGE_CURVE('',#339,#375,#421,.T.) ;
#85=EDGE_LOOP('',(#86,#87,#88,#89)) ;
#102=EDGE_LOOP('',(#103,#104,#105,#106)) ;
#142=EDGE_LOOP('',(#143,#144,#145,#146)) ;
#159=EDGE_LOOP('',(#160,#161,#162,#163)) ;
#199=EDGE_LOOP('',(#200,#201,#202,#203)) ;
#216=EDGE_LOOP('',(#217,#218,#219,#220)) ;
#247=EDGE_LOOP('',(#248,#249,#250,#251)) ;
#259=EDGE_LOOP('',(#260,#261,#262,#263)) ;
#285=EDGE_LOOP('',(#286,#287)) ;
#289=EDGE_LOOP('',(#290,#291)) ;
#299=EDGE_LOOP('',(#300,#301)) ;
#303=EDGE_LOOP('',(#304,#305)) ;
#313=EDGE_LOOP('',(#314,#315)) ;
#317=EDGE_LOOP('',(#318,#319)) ;
#346=EDGE_LOOP('',(#347,#348,#349,#350)) ;
#358=EDGE_LOOP('',(#359,#360,#361,#362)) ;
#389=EDGE_LOOP('',(#390,#391,#392,#393)) ;
#401=EDGE_LOOP('',(#402,#403,#404,#405)) ;
#423=EDGE_LOOP('',(#424,#425,#426,#427)) ;
#435=EDGE_LOOP('',(#436,#437,#438,#439)) ;
#90=FACE_OUTER_BOUND('',#85,.T.) ;
#107=FACE_OUTER_BOUND('',#102,.T.) ;
#147=FACE_OUTER_BOUND('',#142,.T.) ;
#164=FACE_OUTER_BOUND('',#159,.T.) ;
#204=FACE_OUTER_BOUND('',#199,.T.) ;
#221=FACE_OUTER_BOUND('',#216,.T.) ;
#252=FACE_OUTER_BOUND('',#247,.T.) ;
#264=FACE_OUTER_BOUND('',#259,.T.) ;
#288=FACE_OUTER_BOUND('',#285,.T.) ;
#302=FACE_OUTER_BOUND('',#299,.T.) ;
#316=FACE_OUTER_BOUND('',#313,.T.) ;
#351=FACE_OUTER_BOUND('',#346,.T.) ;
#363=FACE_OUTER_BOUND('',#358,.T.) ;
#394=FACE_OUTER_BOUND('',#389,.T.) ;
#406=FACE_OUTER_BOUND('',#401,.T.) ;
#428=FACE_OUTER_BOUND('',#423,.T.) ;
#440=FACE_OUTER_BOUND('',#435,.T.) ;
#45=UNCERTAINTY_MEASURE_WITH_UNIT(LENGTH_MEASURE(0.005),#41,'distance_accuracy_value','CONFUSED CURVE UNCERTAINTY') ;
#69=LINE('Line',#66,#68) ;
#83=LINE('Line',#80,#82) ;
#126=LINE('Line',#123,#125) ;
#140=LINE('Line',#137,#139) ;
#183=LINE('Line',#180,#182) ;
#197=LINE('Line',#194,#196) ;
#330=LINE('Line',#327,#329) ;
#337=LINE('Line',#334,#336) ;
#373=LINE('Line',#370,#372) ;
#380=LINE('Line',#377,#379) ;
#2=MECHANICAL_CONTEXT(' ',#1,'mechanical') ;
#24=PERSONAL_ADDRESS(' ',' ',' ',' ',' ',' ',' ',' ',' ',' ',' ',' ',(#22),' ') ;
#270=PLANE('Plane',#269) ;
#298=PLANE('Plane',#297) ;
#312=PLANE('Plane',#311) ;
#43=PLANE_ANGLE_MEASURE_WITH_UNIT(PLANE_ANGLE_MEASURE(0.0174532925199),#42) ;
#7=PRODUCT_CATEGORY('part',$) ;
#9=PRODUCT_CATEGORY_RELATIONSHIP(' ',' ',#7,#8) ;
#6=PRODUCT_DEFINITION_FORMATION_WITH_SPECIFIED_SOURCE('',' ',#5,.NOT_KNOWN.) ;
#8=PRODUCT_RELATED_PRODUCT_CATEGORY('detail',$,(#5)) ;
#50=SHAPE_DEFINITION_REPRESENTATION(#40,#49) ;
#62=VERTEX_POINT('',#61) ;
#64=VERTEX_POINT('',#63) ;
#71=VERTEX_POINT('',#70) ;
#78=VERTEX_POINT('',#77) ;
#119=VERTEX_POINT('',#118) ;
#121=VERTEX_POINT('',#120) ;
#128=VERTEX_POINT('',#127) ;
#135=VERTEX_POINT('',#134) ;
#176=VERTEX_POINT('',#175) ;
#178=VERTEX_POINT('',#177) ;
#185=VERTEX_POINT('',#184) ;
#192=VERTEX_POINT('',#191) ;
#233=VERTEX_POINT('',#232) ;
#240=VERTEX_POINT('',#239) ;
#276=VERTEX_POINT('',#275) ;
#278=VERTEX_POINT('',#277) ;
#332=VERTEX_POINT('',#331) ;
#339=VERTEX_POINT('',#338) ;
#375=VERTEX_POINT('',#374) ;
#382=VERTEX_POINT('',#381) ;
#41=(LENGTH_UNIT()NAMED_UNIT(*)SI_UNIT(.MILLI.,.METRE.)) ;
#42=(NAMED_UNIT(*)PLANE_ANGLE_UNIT()SI_UNIT($,.RADIAN.)) ;
#44=(NAMED_UNIT(*)SI_UNIT($,.STERADIAN.)SOLID_ANGLE_UNIT()) ;
#46=(GEOMETRIC_REPRESENTATION_CONTEXT(3)GLOBAL_UNCERTAINTY_ASSIGNED_CONTEXT((#45))GLOBAL_UNIT_ASSIGNED_CONTEXT((#41,#42,#44))REPRESENTATION_CONTEXT(' ',' ')) ;
ENDSEC;
END-ISO-10303-21;
