ISO-10303-21;
HEADER;
FILE_DESCRIPTION (( 'STEP AP203' ),
    '1' );
FILE_NAME ('11 - Dome ideal 126 YZ.STEP',
    '2020-08-28T12:05:44',
    ( '' ),
    ( '' ),
    'SwSTEP 2.0',
    'SolidWorks 2019',
    '' );
FILE_SCHEMA (( 'CONFIG_CONTROL_DESIGN' ));
ENDSEC;

DATA;
#1 = EDGE_LOOP ( 'NONE', ( #104, #75, #201, #142 ) ) ;
#2 = ORIENTED_EDGE ( 'NONE', *, *, #70, .T. ) ;
#3 = EDGE_CURVE ( 'NONE', #356, #207, #338, .T. ) ;
#4 = DIRECTION ( 'NONE',  ( 0.0000000000000000000, 0.0000000000000000000, 1.000000000000000000 ) ) ;
#5 = FACE_OUTER_BOUND ( 'NONE', #315, .T. ) ;
#6 = AXIS2_PLACEMENT_3D ( 'NONE', #247, #60, #63 ) ;
#7 = CARTESIAN_POINT ( 'NONE',  ( 0.0000000000000000000, 1.234288864959204979, -20.00000000000000000 ) ) ;
#8 = PERSON_AND_ORGANIZATION ( #210, #23 ) ;
#9 = LINE ( 'NONE', #136, #267 ) ;
#10 = VERTEX_POINT ( 'NONE', #91 ) ;
#11 = CC_DESIGN_PERSON_AND_ORGANIZATION_ASSIGNMENT ( #297, #90, ( #48 ) ) ;
#12 = AXIS2_PLACEMENT_3D ( 'NONE', #325, #31, #189 ) ;
#13 = CARTESIAN_POINT ( 'NONE',  ( 0.0000000000000000000, 27.99999999999999645, 0.0000000000000000000 ) ) ;
#14 = DIRECTION ( 'NONE',  ( 0.0000000000000000000, 0.0000000000000000000, -1.000000000000000000 ) ) ;
#15 = DIRECTION ( 'NONE',  ( 0.0000000000000000000, 0.0000000000000000000, -1.000000000000000000 ) ) ;
#16 = DIRECTION ( 'NONE',  ( -0.0000000000000000000, -1.000000000000000000, -0.0000000000000000000 ) ) ;
#17 = DIRECTION ( 'NONE',  ( -0.0000000000000000000, -1.000000000000000000, -0.0000000000000000000 ) ) ;
#18 = ORIENTED_EDGE ( 'NONE', *, *, #281, .F. ) ;
#19 = DIRECTION ( 'NONE',  ( 0.0000000000000000000, -0.0000000000000000000, 1.000000000000000000 ) ) ;
#20 = AXIS2_PLACEMENT_3D ( 'NONE', #360, #352, #93 ) ;
#21 = LINE ( 'NONE', #73, #339 ) ;
#22 = VECTOR ( 'NONE', #377, 1000.000000000000000 ) ;
#23 = ORGANIZATION ( 'UNSPECIFIED', 'UNSPECIFIED', '' ) ;
#24 = DIRECTION ( 'NONE',  ( -0.0000000000000000000, -1.000000000000000000, -0.0000000000000000000 ) ) ;
#25 = ADVANCED_FACE ( 'NONE', ( #354 ), #333, .F. ) ;
#26 = DIRECTION ( 'NONE',  ( 0.0000000000000000000, 0.0000000000000000000, -1.000000000000000000 ) ) ;
#27 = FACE_OUTER_BOUND ( 'NONE', #314, .T. ) ;
#28 = ORIENTED_EDGE ( 'NONE', *, *, #366, .T. ) ;
#29 = APPROVAL_ROLE ( '' ) ;
#30 = AXIS2_PLACEMENT_3D ( 'NONE', #243, #374, #26 ) ;
#31 = DIRECTION ( 'NONE',  ( -1.000000000000000000, 0.0000000000000000000, 0.0000000000000000000 ) ) ;
#32 = DIRECTION ( 'NONE',  ( 0.0000000000000000000, 0.0000000000000000000, 1.000000000000000000 ) ) ;
#33 = ORIENTED_EDGE ( 'NONE', *, *, #130, .T. ) ;
#34 = DATE_TIME_ROLE ( 'creation_date' ) ;
#35 = EDGE_LOOP ( 'NONE', ( #365, #83, #375, #291 ) ) ;
#36 = ORIENTED_EDGE ( 'NONE', *, *, #372, .F. ) ;
#37 = COORDINATED_UNIVERSAL_TIME_OFFSET ( 1, 0, .AHEAD. ) ;
#38 = CARTESIAN_POINT ( 'NONE',  ( 0.0000000000000000000, 27.99999999999999645, 6.374999999999994671 ) ) ;
#39 = CARTESIAN_POINT ( 'NONE',  ( 0.0000000000000000000, 9.000000000000000000, 0.0000000000000000000 ) ) ;
#40 = ORIENTED_EDGE ( 'NONE', *, *, #322, .F. ) ;
#41 = DIRECTION ( 'NONE',  ( 0.0000000000000000000, -1.000000000000000000, -0.0000000000000000000 ) ) ;
#42 = AXIS2_PLACEMENT_3D ( 'NONE', #337, #184, #113 ) ;
#43 = DIRECTION ( 'NONE',  ( -0.0000000000000000000, 1.000000000000000000, -0.0000000000000000000 ) ) ;
#44 = DIRECTION ( 'NONE',  ( -0.0000000000000000000, 1.000000000000000000, -0.0000000000000000000 ) ) ;
#45 = AXIS2_PLACEMENT_3D ( 'NONE', #109, #43, #65 ) ;
#46 = SECURITY_CLASSIFICATION ( '', '', #180 ) ;
#47 = DIRECTION ( 'NONE',  ( 0.0000000000000000000, 1.000000000000000000, 0.0000000000000000000 ) ) ;
#48 = PRODUCT_DEFINITION ( 'UNKNOWN', '', #340, #253 ) ;
#49 = DATE_AND_TIME ( #289, #380 ) ;
#50 = AXIS2_PLACEMENT_3D ( 'NONE', #39, #17, #53 ) ;
#51 = DIRECTION ( 'NONE',  ( 0.0000000000000000000, 1.000000000000000000, 0.0000000000000000000 ) ) ;
#52 = EDGE_CURVE ( 'NONE', #356, #336, #179, .T. ) ;
#53 = DIRECTION ( 'NONE',  ( 0.0000000000000000000, 0.0000000000000000000, -1.000000000000000000 ) ) ;
#54 = EDGE_CURVE ( 'NONE', #89, #294, #61, .T. ) ;
#55 = EDGE_LOOP ( 'NONE', ( #64, #290, #59, #342 ) ) ;
#56 = ORIENTED_EDGE ( 'NONE', *, *, #237, .F. ) ;
#57 = AXIS2_PLACEMENT_3D ( 'NONE', #359, #259, #15 ) ;
#58 = CARTESIAN_POINT ( 'NONE',  ( -27.00000000000000000, -3.061616997868380183E-16, 0.0000000000000000000 ) ) ;
#59 = ORIENTED_EDGE ( 'NONE', *, *, #157, .T. ) ;
#60 = DIRECTION ( 'NONE',  ( 1.000000000000000000, 0.0000000000000000000, -1.224646799147353207E-16 ) ) ;
#61 = CIRCLE ( 'NONE', #285, 12.50470830502806230 ) ;
#62 = LOCAL_TIME ( 14, 5, 44.00000000000000000, #116 ) ;
#63 = DIRECTION ( 'NONE',  ( -1.224646799147352961E-16, 0.0000000000000000000, -1.000000000000000000 ) ) ;
#64 = ORIENTED_EDGE ( 'NONE', *, *, #54, .F. ) ;
#65 = DIRECTION ( 'NONE',  ( 0.0000000000000000000, 0.0000000000000000000, 1.000000000000000000 ) ) ;
#66 = ADVANCED_FACE ( 'NONE', ( #106, #251 ), #87, .F. ) ;
#67 = DIRECTION ( 'NONE',  ( 0.0000000000000000000, 0.0000000000000000000, -1.000000000000000000 ) ) ;
#68 = APPROVAL_DATE_TIME ( #186, #147 ) ;
#69 = FACE_BOUND ( 'NONE', #185, .T. ) ;
#70 = EDGE_CURVE ( 'NONE', #246, #260, #21, .T. ) ;
#71 = PERSON_AND_ORGANIZATION ( #210, #23 ) ;
#72 = AXIS2_PLACEMENT_3D ( 'NONE', #319, #16, #344 ) ;
#73 = CARTESIAN_POINT ( 'NONE',  ( 7.807123344564369639E-16, 27.99999999999999645, -6.374999999999994671 ) ) ;
#74 = CC_DESIGN_DATE_AND_TIME_ASSIGNMENT ( #292, #81, ( #46 ) ) ;
#75 = ORIENTED_EDGE ( 'NONE', *, *, #254, .T. ) ;
#76 = DIRECTION ( 'NONE',  ( 0.0000000000000000000, 0.0000000000000000000, 1.000000000000000000 ) ) ;
#77 = DIRECTION ( 'NONE',  ( 0.0000000000000000000, 0.0000000000000000000, 1.000000000000000000 ) ) ;
#78 = CC_DESIGN_DATE_AND_TIME_ASSIGNMENT ( #326, #34, ( #48 ) ) ;
#79 = ORIENTED_EDGE ( 'NONE', *, *, #281, .T. ) ;
#80 = VECTOR ( 'NONE', #373, 1000.000000000000000 ) ;
#81 = DATE_TIME_ROLE ( 'classification_date' ) ;
#82 = DIRECTION ( 'NONE',  ( 0.0000000000000000000, 0.0000000000000000000, 1.000000000000000000 ) ) ;
#83 = ORIENTED_EDGE ( 'NONE', *, *, #196, .T. ) ;
#84 = EDGE_LOOP ( 'NONE', ( #269, #94 ) ) ;
#85 = DIRECTION ( 'NONE',  ( -0.0000000000000000000, 1.000000000000000000, -0.0000000000000000000 ) ) ;
#86 = PERSON_AND_ORGANIZATION ( #210, #23 ) ;
#87 = PLANE ( 'NONE',  #118 ) ;
#88 = DIRECTION ( 'NONE',  ( -0.0000000000000000000, -1.000000000000000000, -0.0000000000000000000 ) ) ;
#89 = VERTEX_POINT ( 'NONE', #256 ) ;
#90 = PERSON_AND_ORGANIZATION_ROLE ( 'creator' ) ;
#91 = CARTESIAN_POINT ( 'NONE',  ( 2.877919977996279926E-15, 1.234288864959204979, 20.00000000000000000 ) ) ;
#92 = EDGE_CURVE ( 'NONE', #170, #229, #166, .T. ) ;
#93 = DIRECTION ( 'NONE',  ( 0.0000000000000000000, 0.0000000000000000000, -1.000000000000000000 ) ) ;
#94 = ORIENTED_EDGE ( 'NONE', *, *, #155, .F. ) ;
#95 = CIRCLE ( 'NONE', #316, 27.00000000000000000 ) ;
#96 = ORIENTED_EDGE ( 'NONE', *, *, #70, .F. ) ;
#97 = CARTESIAN_POINT ( 'NONE',  ( 3.306546357697853733E-15, 0.0000000000000000000, 27.00000000000000000 ) ) ;
#98 = CARTESIAN_POINT ( 'NONE',  ( 0.0000000000000000000, 0.0000000000000000000, 0.0000000000000000000 ) ) ;
#99 = CIRCLE ( 'NONE', #320, 32.00000000000000000 ) ;
#100 = APPROVAL_PERSON_ORGANIZATION ( #86, #147, #242 ) ;
#101 = CARTESIAN_POINT ( 'NONE',  ( -12.50470830502806230, 9.000000000000000000, 0.0000000000000000000 ) ) ;
#102 = CARTESIAN_POINT ( 'NONE',  ( 0.0000000000000000000, 0.0000000000000000000, -32.00000000000000000 ) ) ;
#103 = COORDINATED_UNIVERSAL_TIME_OFFSET ( 1, 0, .AHEAD. ) ;
#104 = ORIENTED_EDGE ( 'NONE', *, *, #157, .F. ) ;
#105 = DIRECTION ( 'NONE',  ( -0.0000000000000000000, -1.000000000000000000, -0.0000000000000000000 ) ) ;
#106 = FACE_BOUND ( 'NONE', #240, .T. ) ;
#107 = CYLINDRICAL_SURFACE ( 'NONE', #258, 32.00000000000000000 ) ;
#108 = VECTOR ( 'NONE', #261, 1000.000000000000000 ) ;
#109 = CARTESIAN_POINT ( 'NONE',  ( 0.0000000000000000000, 27.99999999999999645, 0.0000000000000000000 ) ) ;
#110 = ADVANCED_BREP_SHAPE_REPRESENTATION ( '11 - Dome ideal 126 YZ', ( #143, #182 ), #137 ) ;
#111 = AXIS2_PLACEMENT_3D ( 'NONE', #115, #311, #282 ) ;
#112 = ORIENTED_EDGE ( 'NONE', *, *, #302, .F. ) ;
#113 = DIRECTION ( 'NONE',  ( 0.0000000000000000000, 0.0000000000000000000, -1.000000000000000000 ) ) ;
#114 = FACE_OUTER_BOUND ( 'NONE', #35, .T. ) ;
#115 = CARTESIAN_POINT ( 'NONE',  ( 0.0000000000000000000, 1.234288864959204979, 0.0000000000000000000 ) ) ;
#116 = COORDINATED_UNIVERSAL_TIME_OFFSET ( 1, 0, .AHEAD. ) ;
#117 = DIRECTION ( 'NONE',  ( 0.0000000000000000000, -0.1736481776669236421, -0.9848077530122092416 ) ) ;
#118 = AXIS2_PLACEMENT_3D ( 'NONE', #318, #41, #181 ) ;
#119 = LOCAL_TIME ( 14, 5, 44.00000000000000000, #37 ) ;
#120 = FACE_OUTER_BOUND ( 'NONE', #241, .T. ) ;
#121 = FACE_OUTER_BOUND ( 'NONE', #148, .T. ) ;
#122 = ORIENTED_EDGE ( 'NONE', *, *, #140, .T. ) ;
#123 = CALENDAR_DATE ( 2020, 28, 8 ) ;
#124 = DIRECTION ( 'NONE',  ( 0.0000000000000000000, 0.0000000000000000000, 1.000000000000000000 ) ) ;
#125 = CC_DESIGN_PERSON_AND_ORGANIZATION_ASSIGNMENT ( #205, #161, ( #174 ) ) ;
#126 = ORIENTED_EDGE ( 'NONE', *, *, #224, .T. ) ;
#127 = CARTESIAN_POINT ( 'NONE',  ( 0.0000000000000000000, 27.99999999999999645, 0.0000000000000000000 ) ) ;
#128 = CALENDAR_DATE ( 2020, 28, 8 ) ;
#129 = AXIS2_PLACEMENT_3D ( 'NONE', #13, #330, #76 ) ;
#130 = EDGE_CURVE ( 'NONE', #303, #260, #213, .T. ) ;
#131 = DIRECTION ( 'NONE',  ( 1.000000000000000000, 0.0000000000000000000, 0.0000000000000000000 ) ) ;
#132 = TOROIDAL_SURFACE ( 'NONE', #348, 12.50470830502806230, 7.500000000000000000 ) ;
#133 = CARTESIAN_POINT ( 'NONE',  ( 0.0000000000000000000, 27.99999999999999645, 0.0000000000000000000 ) ) ;
#134 = APPLICATION_PROTOCOL_DEFINITION ( 'international standard', 'config_control_design', 1994, #308 ) ;
#135 = PLANE ( 'NONE',  #250 ) ;
#136 = CARTESIAN_POINT ( 'NONE',  ( 0.0000000000000000000, 0.0000000000000000000, -27.00000000000000000 ) ) ;
#137 =( GEOMETRIC_REPRESENTATION_CONTEXT ( 3 ) GLOBAL_UNCERTAINTY_ASSIGNED_CONTEXT ( ( #351 ) ) GLOBAL_UNIT_ASSIGNED_CONTEXT ( ( #197, #378, #349 ) ) REPRESENTATION_CONTEXT ( 'NONE', 'WORKASPACE' ) );
#138 = CARTESIAN_POINT ( 'NONE',  ( 0.0000000000000000000, 9.000000000000000000, -12.50470830502806230 ) ) ;
#139 = PLANE ( 'NONE',  #304 ) ;
#140 = EDGE_CURVE ( 'NONE', #187, #170, #9, .T. ) ;
#141 = APPROVAL_DATE_TIME ( #49, #151 ) ;
#142 = ORIENTED_EDGE ( 'NONE', *, *, #140, .F. ) ;
#143 = MANIFOLD_SOLID_BREP ( 'Trou taraudé M141', #362 ) ;
#144 = DIRECTION ( 'NONE',  ( 1.206041662501899347E-16, -0.1736481776669236421, 0.9848077530122092416 ) ) ;
#145 = CIRCLE ( 'NONE', #355, 32.00000000000000000 ) ;
#146 = APPLICATION_CONTEXT ( 'configuration controlled 3d designs of mechanical parts and assemblies' ) ;
#147 = APPROVAL ( #299, 'UNSPECIFIED' ) ;
#148 = EDGE_LOOP ( 'NONE', ( #323, #233 ) ) ;
#149 = CIRCLE ( 'NONE', #363, 20.00000000000000000 ) ;
#150 = CC_DESIGN_APPROVAL ( #147, ( #46 ) ) ;
#151 = APPROVAL ( #188, 'UNSPECIFIED' ) ;
#152 = DIRECTION ( 'NONE',  ( -0.0000000000000000000, -1.000000000000000000, -0.0000000000000000000 ) ) ;
#153 = DATE_AND_TIME ( #236, #62 ) ;
#154 = CIRCLE ( 'NONE', #371, 6.374999999999994671 ) ;
#155 = EDGE_CURVE ( 'NONE', #207, #356, #99, .T. ) ;
#156 = CARTESIAN_POINT ( 'NONE',  ( 0.0000000000000000000, -6.123233995736760366E-16, 0.0000000000000000000 ) ) ;
#157 = EDGE_CURVE ( 'NONE', #10, #187, #149, .T. ) ;
#158 = CARTESIAN_POINT ( 'NONE',  ( 0.0000000000000000000, 27.99999999999999645, 6.374999999999996447 ) ) ;
#159 = ORIENTED_EDGE ( 'NONE', *, *, #372, .T. ) ;
#160 = DIRECTION ( 'NONE',  ( -0.0000000000000000000, -1.000000000000000000, -0.0000000000000000000 ) ) ;
#161 = PERSON_AND_ORGANIZATION_ROLE ( 'design_owner' ) ;
#162 = LINE ( 'NONE', #38, #108 ) ;
#163 = CARTESIAN_POINT ( 'NONE',  ( 0.0000000000000000000, 0.0000000000000000000, 0.0000000000000000000 ) ) ;
#164 = ORIENTED_EDGE ( 'NONE', *, *, #346, .T. ) ;
#165 = CARTESIAN_POINT ( 'NONE',  ( 0.0000000000000000000, 9.000000000000000000, 0.0000000000000000000 ) ) ;
#166 = CIRCLE ( 'NONE', #379, 27.00000000000000000 ) ;
#167 = EDGE_CURVE ( 'NONE', #336, #324, #192, .T. ) ;
#168 = APPROVAL_PERSON_ORGANIZATION ( #8, #151, #29 ) ;
#169 = APPROVAL_ROLE ( '' ) ;
#170 = VERTEX_POINT ( 'NONE', #262 ) ;
#171 = FACE_OUTER_BOUND ( 'NONE', #1, .T. ) ;
#172 = CARTESIAN_POINT ( 'NONE',  ( 0.0000000000000000000, 27.99999999999999645, -32.00000000000000000 ) ) ;
#173 = CIRCLE ( 'NONE', #6, 7.500000000000000000 ) ;
#174 = PRODUCT ( '11 - Dome ideal 126 YZ', '11 - Dome ideal 126 YZ', '', ( #280 ) ) ;
#175 = ORIENTED_EDGE ( 'NONE', *, *, #92, .T. ) ;
#176 = CIRCLE ( 'NONE', #12, 7.500000000000000000 ) ;
#177 = CARTESIAN_POINT ( 'NONE',  ( 7.807123344564371611E-16, 27.99999999999999645, -6.374999999999996447 ) ) ;
#178 = CARTESIAN_POINT ( 'NONE',  ( 0.0000000000000000000, 27.99999999999999645, 0.0000000000000000000 ) ) ;
#179 = LINE ( 'NONE', #102, #22 ) ;
#180 = SECURITY_CLASSIFICATION_LEVEL ( 'unclassified' ) ;
#181 = DIRECTION ( 'NONE',  ( 0.0000000000000000000, 0.0000000000000000000, -1.000000000000000000 ) ) ;
#182 = AXIS2_PLACEMENT_3D ( 'NONE', #163, #82, #131 ) ;
#183 = VERTEX_POINT ( 'NONE', #270 ) ;
#184 = DIRECTION ( 'NONE',  ( -0.0000000000000000000, -1.000000000000000000, -0.0000000000000000000 ) ) ;
#185 = EDGE_LOOP ( 'NONE', ( #357, #305 ) ) ;
#186 = DATE_AND_TIME ( #221, #321 ) ;
#187 = VERTEX_POINT ( 'NONE', #7 ) ;
#188 = APPROVAL_STATUS ( 'not_yet_approved' ) ;
#189 = DIRECTION ( 'NONE',  ( 0.0000000000000000000, 0.0000000000000000000, 1.000000000000000000 ) ) ;
#190 = CARTESIAN_POINT ( 'NONE',  ( 0.0000000000000000000, 1.234288864959204979, 0.0000000000000000000 ) ) ;
#191 = ADVANCED_FACE ( 'NONE', ( #202, #313 ), #135, .F. ) ;
#192 = CIRCLE ( 'NONE', #30, 32.00000000000000000 ) ;
#193 = PERSON_AND_ORGANIZATION_ROLE ( 'design_supplier' ) ;
#194 = DIRECTION ( 'NONE',  ( 0.0000000000000000000, -0.0000000000000000000, 1.000000000000000000 ) ) ;
#195 = PERSON_AND_ORGANIZATION_ROLE ( 'classification_officer' ) ;
#196 = EDGE_CURVE ( 'NONE', #207, #324, #255, .T. ) ;
#197 =( LENGTH_UNIT ( ) NAMED_UNIT ( * ) SI_UNIT ( .MILLI., .METRE. ) );
#198 = DIRECTION ( 'NONE',  ( 0.0000000000000000000, 1.000000000000000000, 0.0000000000000000000 ) ) ;
#199 = CARTESIAN_POINT ( 'NONE',  ( 0.0000000000000000000, 0.0000000000000000000, 0.0000000000000000000 ) ) ;
#200 = ADVANCED_FACE ( 'NONE', ( #69, #121 ), #139, .F. ) ;
#201 = ORIENTED_EDGE ( 'NONE', *, *, #301, .T. ) ;
#202 = FACE_BOUND ( 'NONE', #265, .T. ) ;
#203 = ORIENTED_EDGE ( 'NONE', *, *, #254, .F. ) ;
#204 = CONICAL_SURFACE ( 'NONE', #42, 27.00000000000000000, 1.396263401595470466 ) ;
#205 = PERSON_AND_ORGANIZATION ( #210, #23 ) ;
#206 = DIRECTION ( 'NONE',  ( -0.0000000000000000000, -1.000000000000000000, -0.0000000000000000000 ) ) ;
#207 = VERTEX_POINT ( 'NONE', #369 ) ;
#208 = DIRECTION ( 'NONE',  ( 0.0000000000000000000, 0.0000000000000000000, -1.000000000000000000 ) ) ;
#209 = PERSON_AND_ORGANIZATION_ROLE ( 'creator' ) ;
#210 = PERSON ( 'UNSPECIFIED', 'UNSPECIFIED', 'UNSPECIFIED', ('UNSPECIFIED'), ('UNSPECIFIED'), ('UNSPECIFIED') ) ;
#211 = PRODUCT_RELATED_PRODUCT_CATEGORY ( 'detail', '', ( #174 ) ) ;
#212 = ORIENTED_EDGE ( 'NONE', *, *, #52, .T. ) ;
#213 = CIRCLE ( 'NONE', #45, 6.374999999999996447 ) ;
#214 = DIRECTION ( 'NONE',  ( -0.0000000000000000000, 1.000000000000000000, -0.0000000000000000000 ) ) ;
#215 = CC_DESIGN_APPROVAL ( #151, ( #340 ) ) ;
#216 = CC_DESIGN_PERSON_AND_ORGANIZATION_ASSIGNMENT ( #71, #209, ( #340 ) ) ;
#217 = ADVANCED_FACE ( 'NONE', ( #227 ), #132, .F. ) ;
#218 = APPROVAL_DATE_TIME ( #153, #331 ) ;
#219 = CARTESIAN_POINT ( 'NONE',  ( 0.0000000000000000000, 1.499999999999999334, 0.0000000000000000000 ) ) ;
#220 = CARTESIAN_POINT ( 'NONE',  ( 0.0000000000000000000, 0.0000000000000000000, 0.0000000000000000000 ) ) ;
#221 = CALENDAR_DATE ( 2020, 28, 8 ) ;
#222 = CIRCLE ( 'NONE', #50, 12.50470830502806230 ) ;
#223 = DIRECTION ( 'NONE',  ( 0.0000000000000000000, 0.0000000000000000000, -1.000000000000000000 ) ) ;
#224 = EDGE_CURVE ( 'NONE', #294, #187, #176, .T. ) ;
#225 = ADVANCED_FACE ( 'NONE', ( #120 ), #228, .F. ) ;
#226 = CARTESIAN_POINT ( 'NONE',  ( 3.918869757271530263E-15, -6.123233995736760366E-16, 32.00000000000000000 ) ) ;
#227 = FACE_OUTER_BOUND ( 'NONE', #55, .T. ) ;
#228 = TOROIDAL_SURFACE ( 'NONE', #57, 12.50470830502806230, 7.500000000000000000 ) ;
#229 = VERTEX_POINT ( 'NONE', #97 ) ;
#230 = COORDINATED_UNIVERSAL_TIME_OFFSET ( 1, 0, .AHEAD. ) ;
#231 = ORIENTED_EDGE ( 'NONE', *, *, #155, .T. ) ;
#232 = EDGE_LOOP ( 'NONE', ( #40, #2, #79, #284 ) ) ;
#233 = ORIENTED_EDGE ( 'NONE', *, *, #302, .T. ) ;
#234 = AXIS2_PLACEMENT_3D ( 'NONE', #178, #85, #124 ) ;
#235 = APPROVAL_PERSON_ORGANIZATION ( #274, #331, #169 ) ;
#236 = CALENDAR_DATE ( 2020, 28, 8 ) ;
#237 = EDGE_CURVE ( 'NONE', #187, #10, #276, .T. ) ;
#238 = LINE ( 'NONE', #252, #334 ) ;
#239 = ORIENTED_EDGE ( 'NONE', *, *, #196, .F. ) ;
#240 = EDGE_LOOP ( 'NONE', ( #341, #18 ) ) ;
#241 = EDGE_LOOP ( 'NONE', ( #309, #310, #126, #271 ) ) ;
#242 = APPROVAL_ROLE ( '' ) ;
#243 = CARTESIAN_POINT ( 'NONE',  ( 0.0000000000000000000, -6.123233995736760366E-16, 0.0000000000000000000 ) ) ;
#244 = CONICAL_SURFACE ( 'NONE', #72, 27.00000000000000000, 1.396263401595470466 ) ;
#245 = PERSON_AND_ORGANIZATION ( #210, #23 ) ;
#246 = VERTEX_POINT ( 'NONE', #277 ) ;
#247 = CARTESIAN_POINT ( 'NONE',  ( 1.531385100002393913E-15, 1.499999999999999334, 12.50470830502806230 ) ) ;
#248 = CYLINDRICAL_SURFACE ( 'NONE', #129, 6.374999999999994671 ) ;
#249 = EDGE_LOOP ( 'NONE', ( #96, #36, #28, #33 ) ) ;
#250 = AXIS2_PLACEMENT_3D ( 'NONE', #101, #347, #194 ) ;
#251 = FACE_OUTER_BOUND ( 'NONE', #84, .T. ) ;
#252 = CARTESIAN_POINT ( 'NONE',  ( 3.306546357697853733E-15, 0.0000000000000000000, 27.00000000000000000 ) ) ;
#253 = DESIGN_CONTEXT ( 'detailed design', #308, 'design' ) ;
#254 = EDGE_CURVE ( 'NONE', #10, #229, #238, .T. ) ;
#255 = LINE ( 'NONE', #335, #80 ) ;
#256 = CARTESIAN_POINT ( 'NONE',  ( 1.990339349148550114E-15, 9.000000000000000000, 12.50470830502806230 ) ) ;
#257 = DIRECTION ( 'NONE',  ( 0.0000000000000000000, 0.0000000000000000000, -1.000000000000000000 ) ) ;
#258 = AXIS2_PLACEMENT_3D ( 'NONE', #98, #206, #278 ) ;
#259 = DIRECTION ( 'NONE',  ( -0.0000000000000000000, -1.000000000000000000, -0.0000000000000000000 ) ) ;
#260 = VERTEX_POINT ( 'NONE', #177 ) ;
#261 = DIRECTION ( 'NONE',  ( -0.0000000000000000000, 1.000000000000000000, -0.0000000000000000000 ) ) ;
#262 = CARTESIAN_POINT ( 'NONE',  ( 0.0000000000000000000, 0.0000000000000000000, -27.00000000000000000 ) ) ;
#263 = AXIS2_PLACEMENT_3D ( 'NONE', #133, #214, #77 ) ;
#264 = APPLICATION_PROTOCOL_DEFINITION ( 'international standard', 'config_control_design', 1994, #146 ) ;
#265 = EDGE_LOOP ( 'NONE', ( #159, #279 ) ) ;
#266 = DIRECTION ( 'NONE',  ( 0.0000000000000000000, 0.0000000000000000000, -1.000000000000000000 ) ) ;
#267 = VECTOR ( 'NONE', #117, 1000.000000000000000 ) ;
#268 = LOCAL_TIME ( 14, 5, 44.00000000000000000, #230 ) ;
#269 = ORIENTED_EDGE ( 'NONE', *, *, #3, .F. ) ;
#270 = CARTESIAN_POINT ( 'NONE',  ( 0.0000000000000000000, 9.000000000000001776, 6.374999999999994671 ) ) ;
#271 = ORIENTED_EDGE ( 'NONE', *, *, #237, .T. ) ;
#272 = CARTESIAN_POINT ( 'NONE',  ( 0.0000000000000000000, 0.0000000000000000000, 0.0000000000000000000 ) ) ;
#273 = ADVANCED_FACE ( 'NONE', ( #27 ), #204, .F. ) ;
#274 = PERSON_AND_ORGANIZATION ( #210, #23 ) ;
#275 = CARTESIAN_POINT ( 'NONE',  ( 0.0000000000000000000, -6.123233995736760366E-16, -32.00000000000000000 ) ) ;
#276 = CIRCLE ( 'NONE', #111, 20.00000000000000000 ) ;
#277 = CARTESIAN_POINT ( 'NONE',  ( 7.807123344564369639E-16, 9.000000000000001776, -6.374999999999994671 ) ) ;
#278 = DIRECTION ( 'NONE',  ( 0.0000000000000000000, 0.0000000000000000000, -1.000000000000000000 ) ) ;
#279 = ORIENTED_EDGE ( 'NONE', *, *, #322, .T. ) ;
#280 = MECHANICAL_CONTEXT ( 'NONE', #146, 'mechanical' ) ;
#281 = EDGE_CURVE ( 'NONE', #260, #303, #376, .T. ) ;
#282 = DIRECTION ( 'NONE',  ( 0.0000000000000000000, 0.0000000000000000000, -1.000000000000000000 ) ) ;
#283 = DIRECTION ( 'NONE',  ( 0.0000000000000000000, 0.0000000000000000000, -1.000000000000000000 ) ) ;
#284 = ORIENTED_EDGE ( 'NONE', *, *, #366, .F. ) ;
#285 = AXIS2_PLACEMENT_3D ( 'NONE', #165, #307, #208 ) ;
#286 = CC_DESIGN_APPROVAL ( #331, ( #48 ) ) ;
#287 = CC_DESIGN_PERSON_AND_ORGANIZATION_ASSIGNMENT ( #245, #193, ( #340 ) ) ;
#288 = COORDINATED_UNIVERSAL_TIME_OFFSET ( 1, 0, .AHEAD. ) ;
#289 = CALENDAR_DATE ( 2020, 28, 8 ) ;
#290 = ORIENTED_EDGE ( 'NONE', *, *, #332, .T. ) ;
#291 = ORIENTED_EDGE ( 'NONE', *, *, #52, .F. ) ;
#292 = DATE_AND_TIME ( #128, #268 ) ;
#293 = CIRCLE ( 'NONE', #343, 6.374999999999994671 ) ;
#294 = VERTEX_POINT ( 'NONE', #138 ) ;
#295 = PRODUCT_DEFINITION_SHAPE ( 'NONE', 'NONE',  #48 ) ;
#296 = SHAPE_DEFINITION_REPRESENTATION ( #295, #110 ) ;
#297 = PERSON_AND_ORGANIZATION ( #210, #23 ) ;
#298 = CYLINDRICAL_SURFACE ( 'NONE', #327, 32.00000000000000000 ) ;
#299 = APPROVAL_STATUS ( 'not_yet_approved' ) ;
#300 = CARTESIAN_POINT ( 'NONE',  ( 0.0000000000000000000, 9.000000000000001776, 0.0000000000000000000 ) ) ;
#301 = EDGE_CURVE ( 'NONE', #229, #170, #95, .T. ) ;
#302 = EDGE_CURVE ( 'NONE', #324, #336, #145, .T. ) ;
#303 = VERTEX_POINT ( 'NONE', #158 ) ;
#304 = AXIS2_PLACEMENT_3D ( 'NONE', #58, #47, #19 ) ;
#305 = ORIENTED_EDGE ( 'NONE', *, *, #301, .F. ) ;
#306 = EDGE_LOOP ( 'NONE', ( #164, #329 ) ) ;
#307 = DIRECTION ( 'NONE',  ( -0.0000000000000000000, -1.000000000000000000, -0.0000000000000000000 ) ) ;
#308 = APPLICATION_CONTEXT ( 'configuration controlled 3d designs of mechanical parts and assemblies' ) ;
#309 = ORIENTED_EDGE ( 'NONE', *, *, #332, .F. ) ;
#310 = ORIENTED_EDGE ( 'NONE', *, *, #346, .F. ) ;
#311 = DIRECTION ( 'NONE',  ( -0.0000000000000000000, -1.000000000000000000, -0.0000000000000000000 ) ) ;
#312 = ADVANCED_FACE ( 'NONE', ( #171 ), #244, .F. ) ;
#313 = FACE_OUTER_BOUND ( 'NONE', #306, .T. ) ;
#314 = EDGE_LOOP ( 'NONE', ( #203, #56, #122, #175 ) ) ;
#315 = EDGE_LOOP ( 'NONE', ( #239, #231, #212, #112 ) ) ;
#316 = AXIS2_PLACEMENT_3D ( 'NONE', #272, #370, #67 ) ;
#317 = ADVANCED_FACE ( 'NONE', ( #367 ), #248, .F. ) ;
#318 = CARTESIAN_POINT ( 'NONE',  ( -32.00000000000000000, 27.99999999999999645, 0.0000000000000000000 ) ) ;
#319 = CARTESIAN_POINT ( 'NONE',  ( 0.0000000000000000000, 0.0000000000000000000, 0.0000000000000000000 ) ) ;
#320 = AXIS2_PLACEMENT_3D ( 'NONE', #127, #160, #368 ) ;
#321 = LOCAL_TIME ( 14, 5, 44.00000000000000000, #288 ) ;
#322 = EDGE_CURVE ( 'NONE', #246, #183, #293, .T. ) ;
#323 = ORIENTED_EDGE ( 'NONE', *, *, #167, .T. ) ;
#324 = VERTEX_POINT ( 'NONE', #226 ) ;
#325 = CARTESIAN_POINT ( 'NONE',  ( 0.0000000000000000000, 1.499999999999999334, -12.50470830502806230 ) ) ;
#326 = DATE_AND_TIME ( #123, #119 ) ;
#327 = AXIS2_PLACEMENT_3D ( 'NONE', #220, #350, #266 ) ;
#328 = PERSON_AND_ORGANIZATION ( #210, #23 ) ;
#329 = ORIENTED_EDGE ( 'NONE', *, *, #54, .T. ) ;
#330 = DIRECTION ( 'NONE',  ( -0.0000000000000000000, 1.000000000000000000, -0.0000000000000000000 ) ) ;
#331 = APPROVAL ( #358, 'UNSPECIFIED' ) ;
#332 = EDGE_CURVE ( 'NONE', #89, #10, #173, .T. ) ;
#333 = CYLINDRICAL_SURFACE ( 'NONE', #234, 6.374999999999994671 ) ;
#334 = VECTOR ( 'NONE', #144, 1000.000000000000000 ) ;
#335 = CARTESIAN_POINT ( 'NONE',  ( 3.918869757271530263E-15, 0.0000000000000000000, 32.00000000000000000 ) ) ;
#336 = VERTEX_POINT ( 'NONE', #275 ) ;
#337 = CARTESIAN_POINT ( 'NONE',  ( 0.0000000000000000000, 0.0000000000000000000, 0.0000000000000000000 ) ) ;
#338 = CIRCLE ( 'NONE', #20, 32.00000000000000000 ) ;
#339 = VECTOR ( 'NONE', #44, 1000.000000000000000 ) ;
#340 = PRODUCT_DEFINITION_FORMATION_WITH_SPECIFIED_SOURCE ( 'ANY', '', #174, .NOT_KNOWN. ) ;
#341 = ORIENTED_EDGE ( 'NONE', *, *, #130, .F. ) ;
#342 = ORIENTED_EDGE ( 'NONE', *, *, #224, .F. ) ;
#343 = AXIS2_PLACEMENT_3D ( 'NONE', #300, #51, #32 ) ;
#344 = DIRECTION ( 'NONE',  ( 0.0000000000000000000, 0.0000000000000000000, -1.000000000000000000 ) ) ;
#345 = CARTESIAN_POINT ( 'NONE',  ( 0.0000000000000000000, 9.000000000000001776, 0.0000000000000000000 ) ) ;
#346 = EDGE_CURVE ( 'NONE', #294, #89, #222, .T. ) ;
#347 = DIRECTION ( 'NONE',  ( 0.0000000000000000000, 1.000000000000000000, 0.0000000000000000000 ) ) ;
#348 = AXIS2_PLACEMENT_3D ( 'NONE', #219, #152, #14 ) ;
#349 =( NAMED_UNIT ( * ) SI_UNIT ( $, .STERADIAN. ) SOLID_ANGLE_UNIT ( ) );
#350 = DIRECTION ( 'NONE',  ( -0.0000000000000000000, -1.000000000000000000, -0.0000000000000000000 ) ) ;
#351 = UNCERTAINTY_MEASURE_WITH_UNIT (LENGTH_MEASURE( 1.000000000000000082E-05 ), #197, 'distance_accuracy_value', 'NONE');
#352 = DIRECTION ( 'NONE',  ( -0.0000000000000000000, -1.000000000000000000, -0.0000000000000000000 ) ) ;
#353 = CC_DESIGN_PERSON_AND_ORGANIZATION_ASSIGNMENT ( #328, #195, ( #46 ) ) ;
#354 = FACE_OUTER_BOUND ( 'NONE', #249, .T. ) ;
#355 = AXIS2_PLACEMENT_3D ( 'NONE', #156, #105, #257 ) ;
#356 = VERTEX_POINT ( 'NONE', #172 ) ;
#357 = ORIENTED_EDGE ( 'NONE', *, *, #92, .F. ) ;
#358 = APPROVAL_STATUS ( 'not_yet_approved' ) ;
#359 = CARTESIAN_POINT ( 'NONE',  ( 0.0000000000000000000, 1.499999999999999334, 0.0000000000000000000 ) ) ;
#360 = CARTESIAN_POINT ( 'NONE',  ( 0.0000000000000000000, 27.99999999999999645, 0.0000000000000000000 ) ) ;
#361 = ADVANCED_FACE ( 'NONE', ( #5 ), #298, .T. ) ;
#362 = CLOSED_SHELL ( 'NONE', ( #317, #217, #381, #312, #273, #200, #361, #66, #191, #225, #25 ) ) ;
#363 = AXIS2_PLACEMENT_3D ( 'NONE', #190, #24, #283 ) ;
#364 = CC_DESIGN_SECURITY_CLASSIFICATION ( #46, ( #340 ) ) ;
#365 = ORIENTED_EDGE ( 'NONE', *, *, #3, .T. ) ;
#366 = EDGE_CURVE ( 'NONE', #183, #303, #162, .T. ) ;
#367 = FACE_OUTER_BOUND ( 'NONE', #232, .T. ) ;
#368 = DIRECTION ( 'NONE',  ( 0.0000000000000000000, 0.0000000000000000000, -1.000000000000000000 ) ) ;
#369 = CARTESIAN_POINT ( 'NONE',  ( 3.918869757271530263E-15, 27.99999999999999645, 32.00000000000000000 ) ) ;
#370 = DIRECTION ( 'NONE',  ( -0.0000000000000000000, -1.000000000000000000, -0.0000000000000000000 ) ) ;
#371 = AXIS2_PLACEMENT_3D ( 'NONE', #345, #198, #4 ) ;
#372 = EDGE_CURVE ( 'NONE', #183, #246, #154, .T. ) ;
#373 = DIRECTION ( 'NONE',  ( -0.0000000000000000000, -1.000000000000000000, -0.0000000000000000000 ) ) ;
#374 = DIRECTION ( 'NONE',  ( -0.0000000000000000000, -1.000000000000000000, -0.0000000000000000000 ) ) ;
#375 = ORIENTED_EDGE ( 'NONE', *, *, #167, .F. ) ;
#376 = CIRCLE ( 'NONE', #263, 6.374999999999996447 ) ;
#377 = DIRECTION ( 'NONE',  ( -0.0000000000000000000, -1.000000000000000000, -0.0000000000000000000 ) ) ;
#378 =( NAMED_UNIT ( * ) PLANE_ANGLE_UNIT ( ) SI_UNIT ( $, .RADIAN. ) );
#379 = AXIS2_PLACEMENT_3D ( 'NONE', #199, #88, #223 ) ;
#380 = LOCAL_TIME ( 14, 5, 44.00000000000000000, #103 ) ;
#381 = ADVANCED_FACE ( 'NONE', ( #114 ), #107, .T. ) ;
ENDSEC;
END-ISO-10303-21;
