ISO-10303-21;
HEADER;
FILE_DESCRIPTION(('CATIA V5 STEP Exchange'),'2;1');

FILE_NAME('C:\\Users\\chinc\\OneDrive\\Documents\\Velos\\DH Glory Giant\\butee sram X5\\butee.stp','2020-08-28T17:22:13+00:00',('none'),('none'),'Version 5-6 Release 2013','CATIA V5 STEP AP203','none');

FILE_SCHEMA(('CONFIG_CONTROL_DESIGN'));

ENDSEC;
DATA;
#5=PRODUCT('Part1','','',(#2)) ;
#1=APPLICATION_CONTEXT('configuration controlled 3D design of mechanical parts and assemblies') ;
#14=PRODUCT_DEFINITION('',' ',#6,#3) ;
#16=SECURITY_CLASSIFICATION(' ',' ',#15) ;
#15=SECURITY_CLASSIFICATION_LEVEL('unclassified') ;
#47=CARTESIAN_POINT(' ',(0.,0.,0.)) ;
#52=CARTESIAN_POINT('Axis2P3D Location',(24.,0.,0.)) ;
#57=CARTESIAN_POINT('Line Origine',(24.,0.,1.5)) ;
#61=CARTESIAN_POINT('Vertex',(24.,0.,0.)) ;
#63=CARTESIAN_POINT('Vertex',(24.,0.,3.)) ;
#66=CARTESIAN_POINT('Line Origine',(24.,3.,0.)) ;
#70=CARTESIAN_POINT('Vertex',(24.,6.,0.)) ;
#73=CARTESIAN_POINT('Line Origine',(24.,6.,1.5)) ;
#77=CARTESIAN_POINT('Vertex',(24.,6.,3.)) ;
#80=CARTESIAN_POINT('Line Origine',(24.,3.,3.)) ;
#92=CARTESIAN_POINT('Axis2P3D Location',(7.55794284181,6.,0.)) ;
#97=CARTESIAN_POINT('Line Origine',(15.7789714209,6.,0.)) ;
#101=CARTESIAN_POINT('Vertex',(7.55794284181,6.,0.)) ;
#104=CARTESIAN_POINT('Line Origine',(7.55794284181,6.,1.5)) ;
#108=CARTESIAN_POINT('Vertex',(7.55794284181,6.,3.)) ;
#111=CARTESIAN_POINT('Line Origine',(15.7789714209,6.,3.)) ;
#123=CARTESIAN_POINT('Axis2P3D Location',(0.,-9.65,0.)) ;
#128=CARTESIAN_POINT('Line Origine',(0.,-9.65,1.5)) ;
#132=CARTESIAN_POINT('Vertex',(0.,-9.65,0.)) ;
#134=CARTESIAN_POINT('Vertex',(-8.74818937428E-014,-9.65,3.)) ;
#137=CARTESIAN_POINT('Line Origine',(8.,-9.65,0.)) ;
#141=CARTESIAN_POINT('Vertex',(16.,-9.65,0.)) ;
#144=CARTESIAN_POINT('Line Origine',(16.,-9.65,1.5)) ;
#148=CARTESIAN_POINT('Vertex',(16.,-9.65,3.)) ;
#151=CARTESIAN_POINT('Line Origine',(8.,-9.65,3.)) ;
#163=CARTESIAN_POINT('Axis2P3D Location',(0.,0.,0.750000000008)) ;
#168=CARTESIAN_POINT('Axis2P3D Location',(0.,0.,3.)) ;
#172=CARTESIAN_POINT('Vertex',(-4.62645644753,8.46867172224,3.)) ;
#175=CARTESIAN_POINT('Line Origine',(-4.62645644753,8.46867172224,10.)) ;
#179=CARTESIAN_POINT('Vertex',(-4.62645644753,8.46867172224,1.11022302463E-016)) ;
#182=CARTESIAN_POINT('Axis2P3D Location',(0.,0.,0.)) ;
#194=CARTESIAN_POINT('Axis2P3D Location',(0.,0.,0.)) ;
#199=CARTESIAN_POINT('Axis2P3D Location',(0.,0.,3.)) ;
#211=CARTESIAN_POINT('Axis2P3D Location',(0.,0.,0.750000000008)) ;
#216=CARTESIAN_POINT('Line Origine',(-3.97923197041,7.28393526369,-0.75)) ;
#220=CARTESIAN_POINT('Vertex',(-3.97923197041,7.28393526369,-1.5)) ;
#222=CARTESIAN_POINT('Vertex',(-3.97923197041,7.28393526369,2.22044604925E-016)) ;
#225=CARTESIAN_POINT('Axis2P3D Location',(0.,0.,1.11022302463E-016)) ;
#229=CARTESIAN_POINT('Vertex',(3.97923197041,-7.28393526369,2.22044604925E-016)) ;
#232=CARTESIAN_POINT('Line Origine',(3.97923197041,-7.28393526369,-0.75)) ;
#236=CARTESIAN_POINT('Vertex',(3.97923197041,-7.28393526369,-1.5)) ;
#239=CARTESIAN_POINT('Axis2P3D Location',(0.,0.,-1.5)) ;
#251=CARTESIAN_POINT('Axis2P3D Location',(0.,0.,1.11022302463E-016)) ;
#256=CARTESIAN_POINT('Axis2P3D Location',(0.,0.,-1.5)) ;
#268=CARTESIAN_POINT('Axis2P3D Location',(0.,0.,0.750000000008)) ;
#273=CARTESIAN_POINT('Line Origine',(3.83540430883,-7.02066049512,2.15)) ;
#277=CARTESIAN_POINT('Vertex',(3.83540430883,-7.02066049512,3.)) ;
#279=CARTESIAN_POINT('Vertex',(3.83540430883,-7.02066049512,1.3)) ;
#282=CARTESIAN_POINT('Axis2P3D Location',(0.,0.,1.3)) ;
#286=CARTESIAN_POINT('Vertex',(-3.83540430883,7.02066049512,1.3)) ;
#289=CARTESIAN_POINT('Line Origine',(-3.83540430883,7.02066049512,2.15)) ;
#293=CARTESIAN_POINT('Vertex',(-3.83540430883,7.02066049512,3.)) ;
#296=CARTESIAN_POINT('Axis2P3D Location',(0.,0.,3.)) ;
#308=CARTESIAN_POINT('Axis2P3D Location',(0.,0.,1.3)) ;
#313=CARTESIAN_POINT('Axis2P3D Location',(0.,0.,3.)) ;
#325=CARTESIAN_POINT('Axis2P3D Location',(0.,8.3,-1.5)) ;
#334=CARTESIAN_POINT('Axis2P3D Location',(0.,0.,-1.5)) ;
#338=CARTESIAN_POINT('Vertex',(2.87655323163,-5.26549537134,-1.5)) ;
#340=CARTESIAN_POINT('Vertex',(-2.87655323163,5.26549537134,-1.5)) ;
#343=CARTESIAN_POINT('Axis2P3D Location',(0.,0.,-1.5)) ;
#353=CARTESIAN_POINT('Axis2P3D Location',(0.,6.,1.3)) ;
#362=CARTESIAN_POINT('Axis2P3D Location',(0.,0.,1.3)) ;
#366=CARTESIAN_POINT('Vertex',(-2.87655323163,5.26549537134,1.3)) ;
#368=CARTESIAN_POINT('Vertex',(2.87655323163,-5.26549537134,1.3)) ;
#371=CARTESIAN_POINT('Axis2P3D Location',(0.,0.,1.3)) ;
#381=CARTESIAN_POINT('Axis2P3D Location',(0.,0.,0.750000000008)) ;
#386=CARTESIAN_POINT('Line Origine',(2.87655323163,-5.26549537134,-0.1)) ;
#391=CARTESIAN_POINT('Line Origine',(-2.87655323163,5.26549537134,-0.1)) ;
#410=CARTESIAN_POINT('Axis2P3D Location',(24.,0.,0.)) ;
#415=CARTESIAN_POINT('Line Origine',(11.0486424505,0.,1.5)) ;
#419=CARTESIAN_POINT('Vertex',(11.0486424505,0.,3.)) ;
#421=CARTESIAN_POINT('Vertex',(11.0486424505,0.,0.)) ;
#424=CARTESIAN_POINT('Line Origine',(17.5243212253,0.,0.)) ;
#429=CARTESIAN_POINT('Line Origine',(17.5243212253,0.,3.)) ;
#441=CARTESIAN_POINT('Axis2P3D Location',(11.0486424505,-1.5,1.5)) ;
#446=CARTESIAN_POINT('Axis2P3D Location',(11.0486424505,-1.5,3.)) ;
#450=CARTESIAN_POINT('Vertex',(9.56227799532,-1.29820627803,3.)) ;
#453=CARTESIAN_POINT('Line Origine',(9.56227799532,-1.29820627803,1.5)) ;
#457=CARTESIAN_POINT('Vertex',(9.56227799532,-1.29820627803,0.)) ;
#460=CARTESIAN_POINT('Axis2P3D Location',(11.0486424505,-1.5,2.22044604925E-016)) ;
#472=CARTESIAN_POINT('Axis2P3D Location',(0.,8.,3.)) ;
#477=CARTESIAN_POINT('Axis2P3D Location',(10.9557857987,-2.07201774413,3.)) ;
#481=CARTESIAN_POINT('Vertex',(10.0015494886,-3.22935652961,3.)) ;
#483=CARTESIAN_POINT('Vertex',(9.48191326977,-1.79327096241,3.)) ;
#486=CARTESIAN_POINT('Axis2P3D Location',(0.,0.,3.)) ;
#491=CARTESIAN_POINT('Axis2P3D Location',(-11.5790804509,-29.4032715006,3.)) ;
#513=CARTESIAN_POINT('Axis2P3D Location',(0.,9.65,0.)) ;
#518=CARTESIAN_POINT('Axis2P3D Location',(-11.5790804509,-29.4032715006,0.)) ;
#522=CARTESIAN_POINT('Vertex',(10.0015494886,-3.22935652961,0.)) ;
#525=CARTESIAN_POINT('Axis2P3D Location',(0.,0.,0.)) ;
#529=CARTESIAN_POINT('Vertex',(9.48191326977,-1.79327096241,0.)) ;
#532=CARTESIAN_POINT('Axis2P3D Location',(10.9557857987,-2.07201774413,0.)) ;
#554=CARTESIAN_POINT('Axis2P3D Location',(-11.5790804509,-29.4032715006,1.5)) ;
#559=CARTESIAN_POINT('Line Origine',(10.0015494886,-3.22935652961,1.5)) ;
#571=CARTESIAN_POINT('Line Origine',(9.48191326977,-1.79327096241,10.)) ;
#583=CARTESIAN_POINT('Axis2P3D Location',(10.9557857987,-2.07201774413,1.5)) ;
#53=DIRECTION('Axis2P3D Direction',(1.,0.,0.)) ;
#54=DIRECTION('Axis2P3D XDirection',(0.,1.,0.)) ;
#58=DIRECTION('Vector Direction',(0.,0.,1.)) ;
#67=DIRECTION('Vector Direction',(0.,1.,0.)) ;
#74=DIRECTION('Vector Direction',(0.,0.,1.)) ;
#81=DIRECTION('Vector Direction',(0.,1.,0.)) ;
#93=DIRECTION('Axis2P3D Direction',(0.,-1.,0.)) ;
#94=DIRECTION('Axis2P3D XDirection',(1.,0.,0.)) ;
#98=DIRECTION('Vector Direction',(1.,0.,0.)) ;
#105=DIRECTION('Vector Direction',(0.,0.,1.)) ;
#112=DIRECTION('Vector Direction',(1.,0.,0.)) ;
#124=DIRECTION('Axis2P3D Direction',(0.,-1.,0.)) ;
#125=DIRECTION('Axis2P3D XDirection',(1.,0.,0.)) ;
#129=DIRECTION('Vector Direction',(0.,0.,1.)) ;
#138=DIRECTION('Vector Direction',(1.,0.,0.)) ;
#145=DIRECTION('Vector Direction',(0.,0.,1.)) ;
#152=DIRECTION('Vector Direction',(1.,0.,0.)) ;
#164=DIRECTION('Axis2P3D Direction',(0.,0.,1.)) ;
#165=DIRECTION('Axis2P3D XDirection',(-0.479425538604,0.87758256189,0.)) ;
#169=DIRECTION('Axis2P3D Direction',(0.,0.,1.)) ;
#176=DIRECTION('Vector Direction',(0.,0.,1.)) ;
#183=DIRECTION('Axis2P3D Direction',(0.,0.,1.)) ;
#195=DIRECTION('Axis2P3D Direction',(0.,0.,1.)) ;
#200=DIRECTION('Axis2P3D Direction',(0.,0.,1.)) ;
#212=DIRECTION('Axis2P3D Direction',(0.,0.,1.)) ;
#213=DIRECTION('Axis2P3D XDirection',(-0.479425538604,0.87758256189,0.)) ;
#217=DIRECTION('Vector Direction',(0.,0.,1.)) ;
#226=DIRECTION('Axis2P3D Direction',(0.,0.,1.)) ;
#233=DIRECTION('Vector Direction',(0.,0.,1.)) ;
#240=DIRECTION('Axis2P3D Direction',(0.,0.,1.)) ;
#252=DIRECTION('Axis2P3D Direction',(0.,0.,1.)) ;
#257=DIRECTION('Axis2P3D Direction',(0.,0.,1.)) ;
#269=DIRECTION('Axis2P3D Direction',(0.,0.,1.)) ;
#270=DIRECTION('Axis2P3D XDirection',(-0.479425538604,0.87758256189,0.)) ;
#274=DIRECTION('Vector Direction',(0.,0.,1.)) ;
#283=DIRECTION('Axis2P3D Direction',(0.,0.,1.)) ;
#290=DIRECTION('Vector Direction',(0.,0.,1.)) ;
#297=DIRECTION('Axis2P3D Direction',(0.,0.,1.)) ;
#309=DIRECTION('Axis2P3D Direction',(0.,0.,1.)) ;
#314=DIRECTION('Axis2P3D Direction',(0.,0.,1.)) ;
#326=DIRECTION('Axis2P3D Direction',(0.,0.,1.)) ;
#327=DIRECTION('Axis2P3D XDirection',(1.,0.,0.)) ;
#335=DIRECTION('Axis2P3D Direction',(0.,0.,1.)) ;
#344=DIRECTION('Axis2P3D Direction',(0.,0.,1.)) ;
#354=DIRECTION('Axis2P3D Direction',(0.,0.,1.)) ;
#355=DIRECTION('Axis2P3D XDirection',(1.,0.,0.)) ;
#363=DIRECTION('Axis2P3D Direction',(0.,0.,1.)) ;
#372=DIRECTION('Axis2P3D Direction',(0.,0.,1.)) ;
#382=DIRECTION('Axis2P3D Direction',(0.,0.,1.)) ;
#383=DIRECTION('Axis2P3D XDirection',(-0.479425538604,0.87758256189,0.)) ;
#387=DIRECTION('Vector Direction',(0.,0.,1.)) ;
#392=DIRECTION('Vector Direction',(0.,0.,1.)) ;
#411=DIRECTION('Axis2P3D Direction',(0.,1.,-0.)) ;
#412=DIRECTION('Axis2P3D XDirection',(-1.,0.,0.)) ;
#416=DIRECTION('Vector Direction',(0.,0.,-1.)) ;
#425=DIRECTION('Vector Direction',(-1.,0.,0.)) ;
#430=DIRECTION('Vector Direction',(-1.,0.,0.)) ;
#442=DIRECTION('Axis2P3D Direction',(0.,0.,-1.)) ;
#443=DIRECTION('Axis2P3D XDirection',(-0.99090963682,0.134529147982,0.)) ;
#447=DIRECTION('Axis2P3D Direction',(0.,0.,-1.)) ;
#454=DIRECTION('Vector Direction',(0.,0.,-1.)) ;
#461=DIRECTION('Axis2P3D Direction',(0.,0.,-1.)) ;
#473=DIRECTION('Axis2P3D Direction',(0.,0.,1.)) ;
#474=DIRECTION('Axis2P3D XDirection',(1.,0.,0.)) ;
#478=DIRECTION('Axis2P3D Direction',(0.,0.,1.)) ;
#487=DIRECTION('Axis2P3D Direction',(0.,0.,1.)) ;
#492=DIRECTION('Axis2P3D Direction',(0.,0.,1.)) ;
#514=DIRECTION('Axis2P3D Direction',(0.,0.,1.)) ;
#515=DIRECTION('Axis2P3D XDirection',(1.,0.,0.)) ;
#519=DIRECTION('Axis2P3D Direction',(0.,0.,1.)) ;
#526=DIRECTION('Axis2P3D Direction',(0.,0.,1.)) ;
#533=DIRECTION('Axis2P3D Direction',(0.,0.,1.)) ;
#555=DIRECTION('Axis2P3D Direction',(0.,0.,1.)) ;
#556=DIRECTION('Axis2P3D XDirection',(0.812980901258,0.582290352136,0.)) ;
#560=DIRECTION('Vector Direction',(0.,0.,1.)) ;
#572=DIRECTION('Vector Direction',(0.,0.,1.)) ;
#584=DIRECTION('Axis2P3D Direction',(0.,0.,1.)) ;
#585=DIRECTION('Axis2P3D XDirection',(-0.982581685986,0.185831187814,0.)) ;
#48=AXIS2_PLACEMENT_3D(' ',#47,$,$) ;
#55=AXIS2_PLACEMENT_3D('Plane Axis2P3D',#52,#53,#54) ;
#95=AXIS2_PLACEMENT_3D('Plane Axis2P3D',#92,#93,#94) ;
#126=AXIS2_PLACEMENT_3D('Plane Axis2P3D',#123,#124,#125) ;
#166=AXIS2_PLACEMENT_3D('Cylinder Axis2P3D',#163,#164,#165) ;
#170=AXIS2_PLACEMENT_3D('Circle Axis2P3D',#168,#169,$) ;
#184=AXIS2_PLACEMENT_3D('Circle Axis2P3D',#182,#183,$) ;
#196=AXIS2_PLACEMENT_3D('Circle Axis2P3D',#194,#195,$) ;
#201=AXIS2_PLACEMENT_3D('Circle Axis2P3D',#199,#200,$) ;
#214=AXIS2_PLACEMENT_3D('Cylinder Axis2P3D',#211,#212,#213) ;
#227=AXIS2_PLACEMENT_3D('Circle Axis2P3D',#225,#226,$) ;
#241=AXIS2_PLACEMENT_3D('Circle Axis2P3D',#239,#240,$) ;
#253=AXIS2_PLACEMENT_3D('Circle Axis2P3D',#251,#252,$) ;
#258=AXIS2_PLACEMENT_3D('Circle Axis2P3D',#256,#257,$) ;
#271=AXIS2_PLACEMENT_3D('Cylinder Axis2P3D',#268,#269,#270) ;
#284=AXIS2_PLACEMENT_3D('Circle Axis2P3D',#282,#283,$) ;
#298=AXIS2_PLACEMENT_3D('Circle Axis2P3D',#296,#297,$) ;
#310=AXIS2_PLACEMENT_3D('Circle Axis2P3D',#308,#309,$) ;
#315=AXIS2_PLACEMENT_3D('Circle Axis2P3D',#313,#314,$) ;
#328=AXIS2_PLACEMENT_3D('Plane Axis2P3D',#325,#326,#327) ;
#336=AXIS2_PLACEMENT_3D('Circle Axis2P3D',#334,#335,$) ;
#345=AXIS2_PLACEMENT_3D('Circle Axis2P3D',#343,#344,$) ;
#356=AXIS2_PLACEMENT_3D('Plane Axis2P3D',#353,#354,#355) ;
#364=AXIS2_PLACEMENT_3D('Circle Axis2P3D',#362,#363,$) ;
#373=AXIS2_PLACEMENT_3D('Circle Axis2P3D',#371,#372,$) ;
#384=AXIS2_PLACEMENT_3D('Cylinder Axis2P3D',#381,#382,#383) ;
#413=AXIS2_PLACEMENT_3D('Plane Axis2P3D',#410,#411,#412) ;
#444=AXIS2_PLACEMENT_3D('Cylinder Axis2P3D',#441,#442,#443) ;
#448=AXIS2_PLACEMENT_3D('Circle Axis2P3D',#446,#447,$) ;
#462=AXIS2_PLACEMENT_3D('Circle Axis2P3D',#460,#461,$) ;
#475=AXIS2_PLACEMENT_3D('Plane Axis2P3D',#472,#473,#474) ;
#479=AXIS2_PLACEMENT_3D('Circle Axis2P3D',#477,#478,$) ;
#488=AXIS2_PLACEMENT_3D('Circle Axis2P3D',#486,#487,$) ;
#493=AXIS2_PLACEMENT_3D('Circle Axis2P3D',#491,#492,$) ;
#516=AXIS2_PLACEMENT_3D('Plane Axis2P3D',#513,#514,#515) ;
#520=AXIS2_PLACEMENT_3D('Circle Axis2P3D',#518,#519,$) ;
#527=AXIS2_PLACEMENT_3D('Circle Axis2P3D',#525,#526,$) ;
#534=AXIS2_PLACEMENT_3D('Circle Axis2P3D',#532,#533,$) ;
#557=AXIS2_PLACEMENT_3D('Cylinder Axis2P3D',#554,#555,#556) ;
#586=AXIS2_PLACEMENT_3D('Cylinder Axis2P3D',#583,#584,#585) ;
#40=PRODUCT_DEFINITION_SHAPE(' ',' ',#14) ;
#31=APPROVAL_PERSON_ORGANIZATION(#25,#21,#19) ;
#25=PERSON_AND_ORGANIZATION(#22,#23) ;
#22=PERSON(' ',' ',' ',$,$,$) ;
#23=ORGANIZATION(' ',' ',' ') ;
#21=APPROVAL(#20,' ') ;
#20=APPROVAL_STATUS('not_yet_approved') ;
#19=APPROVAL_ROLE('APPROVER') ;
#13=DATE_AND_TIME(#11,#12) ;
#12=LOCAL_TIME(19,22,13.,#10) ;
#10=COORDINATED_UNIVERSAL_TIME_OFFSET(0,0,.AHEAD.) ;
#86=ORIENTED_EDGE('',*,*,#65,.F.) ;
#87=ORIENTED_EDGE('',*,*,#72,.T.) ;
#88=ORIENTED_EDGE('',*,*,#79,.T.) ;
#89=ORIENTED_EDGE('',*,*,#84,.F.) ;
#117=ORIENTED_EDGE('',*,*,#79,.F.) ;
#118=ORIENTED_EDGE('',*,*,#103,.T.) ;
#119=ORIENTED_EDGE('',*,*,#110,.T.) ;
#120=ORIENTED_EDGE('',*,*,#115,.F.) ;
#157=ORIENTED_EDGE('',*,*,#136,.F.) ;
#158=ORIENTED_EDGE('',*,*,#143,.T.) ;
#159=ORIENTED_EDGE('',*,*,#150,.T.) ;
#160=ORIENTED_EDGE('',*,*,#155,.F.) ;
#188=ORIENTED_EDGE('',*,*,#174,.F.) ;
#189=ORIENTED_EDGE('',*,*,#181,.F.) ;
#190=ORIENTED_EDGE('',*,*,#186,.T.) ;
#191=ORIENTED_EDGE('',*,*,#136,.T.) ;
#205=ORIENTED_EDGE('',*,*,#198,.T.) ;
#206=ORIENTED_EDGE('',*,*,#181,.T.) ;
#207=ORIENTED_EDGE('',*,*,#203,.F.) ;
#208=ORIENTED_EDGE('',*,*,#110,.F.) ;
#245=ORIENTED_EDGE('',*,*,#224,.T.) ;
#246=ORIENTED_EDGE('',*,*,#231,.F.) ;
#247=ORIENTED_EDGE('',*,*,#238,.F.) ;
#248=ORIENTED_EDGE('',*,*,#243,.T.) ;
#262=ORIENTED_EDGE('',*,*,#238,.T.) ;
#263=ORIENTED_EDGE('',*,*,#255,.F.) ;
#264=ORIENTED_EDGE('',*,*,#224,.F.) ;
#265=ORIENTED_EDGE('',*,*,#260,.T.) ;
#302=ORIENTED_EDGE('',*,*,#281,.T.) ;
#303=ORIENTED_EDGE('',*,*,#288,.F.) ;
#304=ORIENTED_EDGE('',*,*,#295,.F.) ;
#305=ORIENTED_EDGE('',*,*,#300,.T.) ;
#319=ORIENTED_EDGE('',*,*,#295,.T.) ;
#320=ORIENTED_EDGE('',*,*,#312,.F.) ;
#321=ORIENTED_EDGE('',*,*,#281,.F.) ;
#322=ORIENTED_EDGE('',*,*,#317,.T.) ;
#331=ORIENTED_EDGE('',*,*,#260,.F.) ;
#332=ORIENTED_EDGE('',*,*,#243,.F.) ;
#349=ORIENTED_EDGE('',*,*,#342,.T.) ;
#350=ORIENTED_EDGE('',*,*,#347,.T.) ;
#359=ORIENTED_EDGE('',*,*,#312,.T.) ;
#360=ORIENTED_EDGE('',*,*,#288,.T.) ;
#377=ORIENTED_EDGE('',*,*,#370,.F.) ;
#378=ORIENTED_EDGE('',*,*,#375,.F.) ;
#397=ORIENTED_EDGE('',*,*,#390,.T.) ;
#398=ORIENTED_EDGE('',*,*,#347,.F.) ;
#399=ORIENTED_EDGE('',*,*,#395,.F.) ;
#400=ORIENTED_EDGE('',*,*,#370,.T.) ;
#404=ORIENTED_EDGE('',*,*,#395,.T.) ;
#405=ORIENTED_EDGE('',*,*,#342,.F.) ;
#406=ORIENTED_EDGE('',*,*,#390,.F.) ;
#407=ORIENTED_EDGE('',*,*,#375,.T.) ;
#435=ORIENTED_EDGE('',*,*,#423,.T.) ;
#436=ORIENTED_EDGE('',*,*,#428,.T.) ;
#437=ORIENTED_EDGE('',*,*,#65,.T.) ;
#438=ORIENTED_EDGE('',*,*,#433,.F.) ;
#466=ORIENTED_EDGE('',*,*,#423,.F.) ;
#467=ORIENTED_EDGE('',*,*,#452,.F.) ;
#468=ORIENTED_EDGE('',*,*,#459,.T.) ;
#469=ORIENTED_EDGE('',*,*,#464,.F.) ;
#497=ORIENTED_EDGE('',*,*,#485,.T.) ;
#498=ORIENTED_EDGE('',*,*,#490,.T.) ;
#499=ORIENTED_EDGE('',*,*,#452,.T.) ;
#500=ORIENTED_EDGE('',*,*,#433,.T.) ;
#501=ORIENTED_EDGE('',*,*,#84,.T.) ;
#502=ORIENTED_EDGE('',*,*,#115,.T.) ;
#503=ORIENTED_EDGE('',*,*,#203,.T.) ;
#504=ORIENTED_EDGE('',*,*,#174,.T.) ;
#505=ORIENTED_EDGE('',*,*,#155,.T.) ;
#506=ORIENTED_EDGE('',*,*,#495,.T.) ;
#509=ORIENTED_EDGE('',*,*,#317,.F.) ;
#510=ORIENTED_EDGE('',*,*,#300,.F.) ;
#538=ORIENTED_EDGE('',*,*,#524,.F.) ;
#539=ORIENTED_EDGE('',*,*,#143,.F.) ;
#540=ORIENTED_EDGE('',*,*,#186,.F.) ;
#541=ORIENTED_EDGE('',*,*,#198,.F.) ;
#542=ORIENTED_EDGE('',*,*,#103,.F.) ;
#543=ORIENTED_EDGE('',*,*,#72,.F.) ;
#544=ORIENTED_EDGE('',*,*,#428,.F.) ;
#545=ORIENTED_EDGE('',*,*,#464,.T.) ;
#546=ORIENTED_EDGE('',*,*,#531,.F.) ;
#547=ORIENTED_EDGE('',*,*,#536,.T.) ;
#550=ORIENTED_EDGE('',*,*,#231,.T.) ;
#551=ORIENTED_EDGE('',*,*,#255,.T.) ;
#565=ORIENTED_EDGE('',*,*,#495,.F.) ;
#566=ORIENTED_EDGE('',*,*,#150,.F.) ;
#567=ORIENTED_EDGE('',*,*,#524,.T.) ;
#568=ORIENTED_EDGE('',*,*,#563,.F.) ;
#577=ORIENTED_EDGE('',*,*,#531,.T.) ;
#578=ORIENTED_EDGE('',*,*,#459,.F.) ;
#579=ORIENTED_EDGE('',*,*,#490,.F.) ;
#580=ORIENTED_EDGE('',*,*,#575,.T.) ;
#589=ORIENTED_EDGE('',*,*,#575,.F.) ;
#590=ORIENTED_EDGE('',*,*,#485,.F.) ;
#591=ORIENTED_EDGE('',*,*,#563,.T.) ;
#592=ORIENTED_EDGE('',*,*,#536,.F.) ;
#351=FACE_BOUND('',#348,.T.) ;
#379=FACE_BOUND('',#376,.T.) ;
#511=FACE_BOUND('',#508,.T.) ;
#552=FACE_BOUND('',#549,.T.) ;
#51=CLOSED_SHELL('Closed Shell',(#91,#122,#162,#193,#210,#250,#267,#307,#324,#352,#380,#402,#409,#440,#471,#512,#553,#570,#582,#594)) ;
#59=VECTOR('Line Direction',#58,1.) ;
#68=VECTOR('Line Direction',#67,1.) ;
#75=VECTOR('Line Direction',#74,1.) ;
#82=VECTOR('Line Direction',#81,1.) ;
#99=VECTOR('Line Direction',#98,1.) ;
#106=VECTOR('Line Direction',#105,1.) ;
#113=VECTOR('Line Direction',#112,1.) ;
#130=VECTOR('Line Direction',#129,1.) ;
#139=VECTOR('Line Direction',#138,1.) ;
#146=VECTOR('Line Direction',#145,1.) ;
#153=VECTOR('Line Direction',#152,1.) ;
#177=VECTOR('Line Direction',#176,1.) ;
#218=VECTOR('Line Direction',#217,1.) ;
#234=VECTOR('Line Direction',#233,1.) ;
#275=VECTOR('Line Direction',#274,1.) ;
#291=VECTOR('Line Direction',#290,1.) ;
#388=VECTOR('Line Direction',#387,1.) ;
#393=VECTOR('Line Direction',#392,1.) ;
#417=VECTOR('Line Direction',#416,1.) ;
#426=VECTOR('Line Direction',#425,1.) ;
#431=VECTOR('Line Direction',#430,1.) ;
#455=VECTOR('Line Direction',#454,1.) ;
#561=VECTOR('Line Direction',#560,1.) ;
#573=VECTOR('Line Direction',#572,1.) ;
#596=ADVANCED_BREP_SHAPE_REPRESENTATION('NONE',(#595),#46) ;
#49=SHAPE_REPRESENTATION(' ',(#48),#46) ;
#91=ADVANCED_FACE('Corps principal',(#90),#56,.T.) ;
#122=ADVANCED_FACE('Corps principal',(#121),#96,.F.) ;
#162=ADVANCED_FACE('Corps principal',(#161),#127,.T.) ;
#193=ADVANCED_FACE('Corps principal',(#192),#167,.T.) ;
#210=ADVANCED_FACE('Corps principal',(#209),#167,.T.) ;
#250=ADVANCED_FACE('Corps principal',(#249),#215,.T.) ;
#267=ADVANCED_FACE('Corps principal',(#266),#215,.T.) ;
#307=ADVANCED_FACE('Corps principal',(#306),#272,.F.) ;
#324=ADVANCED_FACE('Corps principal',(#323),#272,.F.) ;
#352=ADVANCED_FACE('Corps principal',(#333,#351),#329,.F.) ;
#380=ADVANCED_FACE('Corps principal',(#361,#379),#357,.T.) ;
#402=ADVANCED_FACE('Corps principal',(#401),#385,.F.) ;
#409=ADVANCED_FACE('Corps principal',(#408),#385,.F.) ;
#440=ADVANCED_FACE('Corps principal',(#439),#414,.F.) ;
#471=ADVANCED_FACE('Corps principal',(#470),#445,.F.) ;
#512=ADVANCED_FACE('Corps principal',(#507,#511),#476,.T.) ;
#553=ADVANCED_FACE('Corps principal',(#548,#552),#517,.F.) ;
#570=ADVANCED_FACE('Corps principal',(#569),#558,.T.) ;
#582=ADVANCED_FACE('Corps principal',(#581),#167,.T.) ;
#594=ADVANCED_FACE('Corps principal',(#593),#587,.F.) ;
#4=APPLICATION_PROTOCOL_DEFINITION('international standard','config_control_design',1994,#1) ;
#32=APPROVAL_DATE_TIME(#13,#21) ;
#595=MANIFOLD_SOLID_BREP('Corps principal',#51) ;
#11=CALENDAR_DATE(2020,28,8) ;
#30=CC_DESIGN_APPROVAL(#21,(#16,#6,#14)) ;
#18=CC_DESIGN_DATE_AND_TIME_ASSIGNMENT(#13,#17,(#16)) ;
#29=CC_DESIGN_DATE_AND_TIME_ASSIGNMENT(#13,#28,(#14)) ;
#17=DATE_TIME_ROLE('classification_date') ;
#28=DATE_TIME_ROLE('creation_date') ;
#27=CC_DESIGN_PERSON_AND_ORGANIZATION_ASSIGNMENT(#25,#26,(#16)) ;
#33=CC_DESIGN_PERSON_AND_ORGANIZATION_ASSIGNMENT(#25,#34,(#6)) ;
#35=CC_DESIGN_PERSON_AND_ORGANIZATION_ASSIGNMENT(#25,#36,(#6,#14)) ;
#37=CC_DESIGN_PERSON_AND_ORGANIZATION_ASSIGNMENT(#25,#38,(#5)) ;
#26=PERSON_AND_ORGANIZATION_ROLE('classification_officer') ;
#34=PERSON_AND_ORGANIZATION_ROLE('design_supplier') ;
#36=PERSON_AND_ORGANIZATION_ROLE('creator') ;
#38=PERSON_AND_ORGANIZATION_ROLE('design_owner') ;
#39=CC_DESIGN_SECURITY_CLASSIFICATION(#16,(#6)) ;
#171=CIRCLE('generated circle',#170,9.65) ;
#185=CIRCLE('generated circle',#184,9.65) ;
#197=CIRCLE('generated circle',#196,9.65) ;
#202=CIRCLE('generated circle',#201,9.65) ;
#228=CIRCLE('generated circle',#227,8.3) ;
#242=CIRCLE('generated circle',#241,8.3) ;
#254=CIRCLE('generated circle',#253,8.3) ;
#259=CIRCLE('generated circle',#258,8.3) ;
#285=CIRCLE('generated circle',#284,8.) ;
#299=CIRCLE('generated circle',#298,8.) ;
#311=CIRCLE('generated circle',#310,8.) ;
#316=CIRCLE('generated circle',#315,8.) ;
#337=CIRCLE('generated circle',#336,6.) ;
#346=CIRCLE('generated circle',#345,6.) ;
#365=CIRCLE('generated circle',#364,6.) ;
#374=CIRCLE('generated circle',#373,6.) ;
#449=CIRCLE('generated circle',#448,1.5) ;
#463=CIRCLE('generated circle',#462,1.5) ;
#480=CIRCLE('generated circle',#479,1.5) ;
#489=CIRCLE('generated circle',#488,9.65) ;
#494=CIRCLE('generated circle',#493,33.9234050988) ;
#521=CIRCLE('generated circle',#520,33.9234050988) ;
#528=CIRCLE('generated circle',#527,9.65) ;
#535=CIRCLE('generated circle',#534,1.5) ;
#597=SHAPE_REPRESENTATION_RELATIONSHIP(' ',' ',#49,#596) ;
#167=CYLINDRICAL_SURFACE('generated cylinder',#166,9.65) ;
#215=CYLINDRICAL_SURFACE('generated cylinder',#214,8.3) ;
#272=CYLINDRICAL_SURFACE('generated cylinder',#271,8.) ;
#385=CYLINDRICAL_SURFACE('generated cylinder',#384,6.) ;
#445=CYLINDRICAL_SURFACE('generated cylinder',#444,1.5) ;
#558=CYLINDRICAL_SURFACE('generated cylinder',#557,33.9234050988) ;
#587=CYLINDRICAL_SURFACE('generated cylinder',#586,1.5) ;
#3=DESIGN_CONTEXT(' ',#1,'design') ;
#65=EDGE_CURVE('',#62,#64,#60,.T.) ;
#72=EDGE_CURVE('',#62,#71,#69,.T.) ;
#79=EDGE_CURVE('',#71,#78,#76,.T.) ;
#84=EDGE_CURVE('',#64,#78,#83,.T.) ;
#103=EDGE_CURVE('',#71,#102,#100,.F.) ;
#110=EDGE_CURVE('',#102,#109,#107,.T.) ;
#115=EDGE_CURVE('',#78,#109,#114,.F.) ;
#136=EDGE_CURVE('',#133,#135,#131,.T.) ;
#143=EDGE_CURVE('',#133,#142,#140,.T.) ;
#150=EDGE_CURVE('',#142,#149,#147,.T.) ;
#155=EDGE_CURVE('',#135,#149,#154,.T.) ;
#174=EDGE_CURVE('',#173,#135,#171,.T.) ;
#181=EDGE_CURVE('',#180,#173,#178,.T.) ;
#186=EDGE_CURVE('',#180,#133,#185,.T.) ;
#198=EDGE_CURVE('',#102,#180,#197,.T.) ;
#203=EDGE_CURVE('',#109,#173,#202,.T.) ;
#224=EDGE_CURVE('',#221,#223,#219,.T.) ;
#231=EDGE_CURVE('',#230,#223,#228,.T.) ;
#238=EDGE_CURVE('',#237,#230,#235,.T.) ;
#243=EDGE_CURVE('',#237,#221,#242,.T.) ;
#255=EDGE_CURVE('',#223,#230,#254,.T.) ;
#260=EDGE_CURVE('',#221,#237,#259,.T.) ;
#281=EDGE_CURVE('',#278,#280,#276,.F.) ;
#288=EDGE_CURVE('',#287,#280,#285,.T.) ;
#295=EDGE_CURVE('',#294,#287,#292,.F.) ;
#300=EDGE_CURVE('',#294,#278,#299,.T.) ;
#312=EDGE_CURVE('',#280,#287,#311,.T.) ;
#317=EDGE_CURVE('',#278,#294,#316,.T.) ;
#342=EDGE_CURVE('',#339,#341,#337,.T.) ;
#347=EDGE_CURVE('',#341,#339,#346,.T.) ;
#370=EDGE_CURVE('',#367,#369,#365,.T.) ;
#375=EDGE_CURVE('',#369,#367,#374,.T.) ;
#390=EDGE_CURVE('',#369,#339,#389,.F.) ;
#395=EDGE_CURVE('',#367,#341,#394,.F.) ;
#423=EDGE_CURVE('',#420,#422,#418,.T.) ;
#428=EDGE_CURVE('',#422,#62,#427,.F.) ;
#433=EDGE_CURVE('',#420,#64,#432,.F.) ;
#452=EDGE_CURVE('',#451,#420,#449,.T.) ;
#459=EDGE_CURVE('',#451,#458,#456,.T.) ;
#464=EDGE_CURVE('',#422,#458,#463,.F.) ;
#485=EDGE_CURVE('',#482,#484,#480,.F.) ;
#490=EDGE_CURVE('',#484,#451,#489,.T.) ;
#495=EDGE_CURVE('',#149,#482,#494,.T.) ;
#524=EDGE_CURVE('',#142,#523,#521,.T.) ;
#531=EDGE_CURVE('',#530,#458,#528,.T.) ;
#536=EDGE_CURVE('',#530,#523,#535,.T.) ;
#563=EDGE_CURVE('',#482,#523,#562,.F.) ;
#575=EDGE_CURVE('',#484,#530,#574,.F.) ;
#85=EDGE_LOOP('',(#86,#87,#88,#89)) ;
#116=EDGE_LOOP('',(#117,#118,#119,#120)) ;
#156=EDGE_LOOP('',(#157,#158,#159,#160)) ;
#187=EDGE_LOOP('',(#188,#189,#190,#191)) ;
#204=EDGE_LOOP('',(#205,#206,#207,#208)) ;
#244=EDGE_LOOP('',(#245,#246,#247,#248)) ;
#261=EDGE_LOOP('',(#262,#263,#264,#265)) ;
#301=EDGE_LOOP('',(#302,#303,#304,#305)) ;
#318=EDGE_LOOP('',(#319,#320,#321,#322)) ;
#330=EDGE_LOOP('',(#331,#332)) ;
#348=EDGE_LOOP('',(#349,#350)) ;
#358=EDGE_LOOP('',(#359,#360)) ;
#376=EDGE_LOOP('',(#377,#378)) ;
#396=EDGE_LOOP('',(#397,#398,#399,#400)) ;
#403=EDGE_LOOP('',(#404,#405,#406,#407)) ;
#434=EDGE_LOOP('',(#435,#436,#437,#438)) ;
#465=EDGE_LOOP('',(#466,#467,#468,#469)) ;
#496=EDGE_LOOP('',(#497,#498,#499,#500,#501,#502,#503,#504,#505,#506)) ;
#508=EDGE_LOOP('',(#509,#510)) ;
#537=EDGE_LOOP('',(#538,#539,#540,#541,#542,#543,#544,#545,#546,#547)) ;
#549=EDGE_LOOP('',(#550,#551)) ;
#564=EDGE_LOOP('',(#565,#566,#567,#568)) ;
#576=EDGE_LOOP('',(#577,#578,#579,#580)) ;
#588=EDGE_LOOP('',(#589,#590,#591,#592)) ;
#90=FACE_OUTER_BOUND('',#85,.T.) ;
#121=FACE_OUTER_BOUND('',#116,.T.) ;
#161=FACE_OUTER_BOUND('',#156,.T.) ;
#192=FACE_OUTER_BOUND('',#187,.T.) ;
#209=FACE_OUTER_BOUND('',#204,.T.) ;
#249=FACE_OUTER_BOUND('',#244,.T.) ;
#266=FACE_OUTER_BOUND('',#261,.T.) ;
#306=FACE_OUTER_BOUND('',#301,.T.) ;
#323=FACE_OUTER_BOUND('',#318,.T.) ;
#333=FACE_OUTER_BOUND('',#330,.T.) ;
#361=FACE_OUTER_BOUND('',#358,.T.) ;
#401=FACE_OUTER_BOUND('',#396,.T.) ;
#408=FACE_OUTER_BOUND('',#403,.T.) ;
#439=FACE_OUTER_BOUND('',#434,.T.) ;
#470=FACE_OUTER_BOUND('',#465,.T.) ;
#507=FACE_OUTER_BOUND('',#496,.T.) ;
#548=FACE_OUTER_BOUND('',#537,.T.) ;
#569=FACE_OUTER_BOUND('',#564,.T.) ;
#581=FACE_OUTER_BOUND('',#576,.T.) ;
#593=FACE_OUTER_BOUND('',#588,.T.) ;
#45=UNCERTAINTY_MEASURE_WITH_UNIT(LENGTH_MEASURE(0.005),#41,'distance_accuracy_value','CONFUSED CURVE UNCERTAINTY') ;
#60=LINE('Line',#57,#59) ;
#69=LINE('Line',#66,#68) ;
#76=LINE('Line',#73,#75) ;
#83=LINE('Line',#80,#82) ;
#100=LINE('Line',#97,#99) ;
#107=LINE('Line',#104,#106) ;
#114=LINE('Line',#111,#113) ;
#131=LINE('Line',#128,#130) ;
#140=LINE('Line',#137,#139) ;
#147=LINE('Line',#144,#146) ;
#154=LINE('Line',#151,#153) ;
#178=LINE('Line',#175,#177) ;
#219=LINE('Line',#216,#218) ;
#235=LINE('Line',#232,#234) ;
#276=LINE('Line',#273,#275) ;
#292=LINE('Line',#289,#291) ;
#389=LINE('Line',#386,#388) ;
#394=LINE('Line',#391,#393) ;
#418=LINE('Line',#415,#417) ;
#427=LINE('Line',#424,#426) ;
#432=LINE('Line',#429,#431) ;
#456=LINE('Line',#453,#455) ;
#562=LINE('Line',#559,#561) ;
#574=LINE('Line',#571,#573) ;
#2=MECHANICAL_CONTEXT(' ',#1,'mechanical') ;
#24=PERSONAL_ADDRESS(' ',' ',' ',' ',' ',' ',' ',' ',' ',' ',' ',' ',(#22),' ') ;
#56=PLANE('',#55) ;
#96=PLANE('',#95) ;
#127=PLANE('',#126) ;
#329=PLANE('',#328) ;
#357=PLANE('',#356) ;
#414=PLANE('',#413) ;
#476=PLANE('',#475) ;
#517=PLANE('',#516) ;
#43=PLANE_ANGLE_MEASURE_WITH_UNIT(PLANE_ANGLE_MEASURE(0.0174532925199),#42) ;
#7=PRODUCT_CATEGORY('part',$) ;
#9=PRODUCT_CATEGORY_RELATIONSHIP(' ',' ',#7,#8) ;
#6=PRODUCT_DEFINITION_FORMATION_WITH_SPECIFIED_SOURCE('',' ',#5,.NOT_KNOWN.) ;
#8=PRODUCT_RELATED_PRODUCT_CATEGORY('detail',$,(#5)) ;
#50=SHAPE_DEFINITION_REPRESENTATION(#40,#49) ;
#62=VERTEX_POINT('',#61) ;
#64=VERTEX_POINT('',#63) ;
#71=VERTEX_POINT('',#70) ;
#78=VERTEX_POINT('',#77) ;
#102=VERTEX_POINT('',#101) ;
#109=VERTEX_POINT('',#108) ;
#133=VERTEX_POINT('',#132) ;
#135=VERTEX_POINT('',#134) ;
#142=VERTEX_POINT('',#141) ;
#149=VERTEX_POINT('',#148) ;
#173=VERTEX_POINT('',#172) ;
#180=VERTEX_POINT('',#179) ;
#221=VERTEX_POINT('',#220) ;
#223=VERTEX_POINT('',#222) ;
#230=VERTEX_POINT('',#229) ;
#237=VERTEX_POINT('',#236) ;
#278=VERTEX_POINT('',#277) ;
#280=VERTEX_POINT('',#279) ;
#287=VERTEX_POINT('',#286) ;
#294=VERTEX_POINT('',#293) ;
#339=VERTEX_POINT('',#338) ;
#341=VERTEX_POINT('',#340) ;
#367=VERTEX_POINT('',#366) ;
#369=VERTEX_POINT('',#368) ;
#420=VERTEX_POINT('',#419) ;
#422=VERTEX_POINT('',#421) ;
#451=VERTEX_POINT('',#450) ;
#458=VERTEX_POINT('',#457) ;
#482=VERTEX_POINT('',#481) ;
#484=VERTEX_POINT('',#483) ;
#523=VERTEX_POINT('',#522) ;
#530=VERTEX_POINT('',#529) ;
#41=(LENGTH_UNIT()NAMED_UNIT(*)SI_UNIT(.MILLI.,.METRE.)) ;
#42=(NAMED_UNIT(*)PLANE_ANGLE_UNIT()SI_UNIT($,.RADIAN.)) ;
#44=(NAMED_UNIT(*)SI_UNIT($,.STERADIAN.)SOLID_ANGLE_UNIT()) ;
#46=(GEOMETRIC_REPRESENTATION_CONTEXT(3)GLOBAL_UNCERTAINTY_ASSIGNED_CONTEXT((#45))GLOBAL_UNIT_ASSIGNED_CONTEXT((#41,#42,#44))REPRESENTATION_CONTEXT(' ',' ')) ;
ENDSEC;
END-ISO-10303-21;
