ISO-10303-21;
HEADER;
/* Generated by software containing ST-Developer
 * from STEP Tools, Inc. (www.steptools.com) 
 */

FILE_DESCRIPTION(
/* description */ (''),
/* implementation_level */ '2;1');

FILE_NAME(
/* name */ 'C:/Users/LANDRE/Downloads/VBAND 51 - 63.5 v1.step',
/* time_stamp */ '2020-04-03T15:14:49+02:00',
/* author */ (''),
/* organization */ (''),
/* preprocessor_version */ 'ST-DEVELOPER v18',
/* originating_system */ 'Autodesk Translation Framework v8.12.0.6',
/* authorisation */ '');

FILE_SCHEMA (('AUTOMOTIVE_DESIGN { 1 0 10303 214 3 1 1 }'));
ENDSEC;

DATA;
#10=MECHANICAL_DESIGN_GEOMETRIC_PRESENTATION_REPRESENTATION('',(#17),#314);
#11=ITEM_DEFINED_TRANSFORMATION($,$,#179,#203);
#12=(
REPRESENTATION_RELATIONSHIP($,$,#325,#324)
REPRESENTATION_RELATIONSHIP_WITH_TRANSFORMATION(#11)
SHAPE_REPRESENTATION_RELATIONSHIP()
);
#13=CONTEXT_DEPENDENT_SHAPE_REPRESENTATION(#12,#323);
#14=NEXT_ASSEMBLY_USAGE_OCCURRENCE('Component1:1','Component1:1',
'Component1:1',#327,#328,'Component1:1');
#15=SHAPE_REPRESENTATION_RELATIONSHIP('SRR','None',#325,#16);
#16=ADVANCED_BREP_SHAPE_REPRESENTATION('',(#18),#313);
#17=STYLED_ITEM('',(#338),#18);
#18=MANIFOLD_SOLID_BREP('Body1',#165);
#19=CYLINDRICAL_SURFACE('',#185,25.8);
#20=CYLINDRICAL_SURFACE('',#193,31.75);
#21=CYLINDRICAL_SURFACE('',#194,32.5);
#22=CYLINDRICAL_SURFACE('',#199,27.7523076131351);
#23=FACE_BOUND('',#41,.T.);
#24=FACE_BOUND('',#45,.T.);
#25=FACE_BOUND('',#49,.T.);
#26=PLANE('',#183);
#27=PLANE('',#190);
#28=PLANE('',#198);
#29=FACE_OUTER_BOUND('',#39,.T.);
#30=FACE_OUTER_BOUND('',#40,.T.);
#31=FACE_OUTER_BOUND('',#42,.T.);
#32=FACE_OUTER_BOUND('',#43,.T.);
#33=FACE_OUTER_BOUND('',#44,.T.);
#34=FACE_OUTER_BOUND('',#46,.T.);
#35=FACE_OUTER_BOUND('',#47,.T.);
#36=FACE_OUTER_BOUND('',#48,.T.);
#37=FACE_OUTER_BOUND('',#50,.T.);
#38=FACE_OUTER_BOUND('',#51,.T.);
#39=EDGE_LOOP('',(#112,#113,#114,#115));
#40=EDGE_LOOP('',(#116));
#41=EDGE_LOOP('',(#117));
#42=EDGE_LOOP('',(#118,#119,#120,#121));
#43=EDGE_LOOP('',(#122,#123,#124,#125));
#44=EDGE_LOOP('',(#126));
#45=EDGE_LOOP('',(#127,#128));
#46=EDGE_LOOP('',(#129,#130,#131,#132));
#47=EDGE_LOOP('',(#133,#134,#135,#136,#137));
#48=EDGE_LOOP('',(#138));
#49=EDGE_LOOP('',(#139));
#50=EDGE_LOOP('',(#140,#141,#142,#143,#144,#145));
#51=EDGE_LOOP('',(#146,#147,#148,#149,#150,#151));
#52=LINE('',#269,#59);
#53=LINE('',#277,#60);
#54=LINE('',#282,#61);
#55=LINE('',#290,#62);
#56=LINE('',#295,#63);
#57=LINE('',#305,#64);
#58=LINE('',#307,#65);
#59=VECTOR('',#212,28.4);
#60=VECTOR('',#223,25.8);
#61=VECTOR('',#228,29.755);
#62=VECTOR('',#239,31.75);
#63=VECTOR('',#244,32.5);
#64=VECTOR('',#257,27.7523076131351);
#65=VECTOR('',#260,31.3761538065675);
#66=CIRCLE('',#181,25.8);
#67=CIRCLE('',#182,31.);
#68=CIRCLE('',#184,31.75);
#69=CIRCLE('',#186,25.8);
#70=CIRCLE('',#188,31.75);
#71=CIRCLE('',#189,27.76);
#72=CIRCLE('',#191,27.7523076131351);
#73=CIRCLE('',#192,27.7523076131351);
#74=CIRCLE('',#195,32.5);
#75=CIRCLE('',#196,32.5);
#76=CIRCLE('',#197,32.5);
#77=CIRCLE('',#200,27.7523076131351);
#78=CIRCLE('',#201,27.7523076131351);
#79=VERTEX_POINT('',#266);
#80=VERTEX_POINT('',#268);
#81=VERTEX_POINT('',#272);
#82=VERTEX_POINT('',#275);
#83=VERTEX_POINT('',#279);
#84=VERTEX_POINT('',#281);
#85=VERTEX_POINT('',#285);
#86=VERTEX_POINT('',#286);
#87=VERTEX_POINT('',#292);
#88=VERTEX_POINT('',#294);
#89=VERTEX_POINT('',#296);
#90=VERTEX_POINT('',#301);
#91=VERTEX_POINT('',#302);
#92=EDGE_CURVE('',#79,#79,#66,.T.);
#93=EDGE_CURVE('',#79,#80,#52,.T.);
#94=EDGE_CURVE('',#80,#80,#67,.T.);
#95=EDGE_CURVE('',#81,#81,#68,.T.);
#96=EDGE_CURVE('',#82,#82,#69,.T.);
#97=EDGE_CURVE('',#82,#79,#53,.T.);
#98=EDGE_CURVE('',#83,#83,#70,.T.);
#99=EDGE_CURVE('',#83,#84,#54,.T.);
#100=EDGE_CURVE('',#84,#84,#71,.T.);
#101=EDGE_CURVE('',#85,#86,#72,.T.);
#102=EDGE_CURVE('',#86,#85,#73,.T.);
#103=EDGE_CURVE('',#81,#83,#55,.T.);
#104=EDGE_CURVE('',#87,#87,#74,.T.);
#105=EDGE_CURVE('',#87,#88,#56,.T.);
#106=EDGE_CURVE('',#89,#88,#75,.T.);
#107=EDGE_CURVE('',#88,#89,#76,.T.);
#108=EDGE_CURVE('',#90,#91,#77,.T.);
#109=EDGE_CURVE('',#91,#90,#78,.T.);
#110=EDGE_CURVE('',#91,#86,#57,.T.);
#111=EDGE_CURVE('',#89,#91,#58,.T.);
#112=ORIENTED_EDGE('',*,*,#92,.T.);
#113=ORIENTED_EDGE('',*,*,#93,.T.);
#114=ORIENTED_EDGE('',*,*,#94,.T.);
#115=ORIENTED_EDGE('',*,*,#93,.F.);
#116=ORIENTED_EDGE('',*,*,#95,.F.);
#117=ORIENTED_EDGE('',*,*,#94,.F.);
#118=ORIENTED_EDGE('',*,*,#96,.F.);
#119=ORIENTED_EDGE('',*,*,#97,.T.);
#120=ORIENTED_EDGE('',*,*,#92,.F.);
#121=ORIENTED_EDGE('',*,*,#97,.F.);
#122=ORIENTED_EDGE('',*,*,#98,.T.);
#123=ORIENTED_EDGE('',*,*,#99,.T.);
#124=ORIENTED_EDGE('',*,*,#100,.T.);
#125=ORIENTED_EDGE('',*,*,#99,.F.);
#126=ORIENTED_EDGE('',*,*,#100,.F.);
#127=ORIENTED_EDGE('',*,*,#101,.F.);
#128=ORIENTED_EDGE('',*,*,#102,.F.);
#129=ORIENTED_EDGE('',*,*,#95,.T.);
#130=ORIENTED_EDGE('',*,*,#103,.T.);
#131=ORIENTED_EDGE('',*,*,#98,.F.);
#132=ORIENTED_EDGE('',*,*,#103,.F.);
#133=ORIENTED_EDGE('',*,*,#104,.F.);
#134=ORIENTED_EDGE('',*,*,#105,.T.);
#135=ORIENTED_EDGE('',*,*,#106,.F.);
#136=ORIENTED_EDGE('',*,*,#107,.F.);
#137=ORIENTED_EDGE('',*,*,#105,.F.);
#138=ORIENTED_EDGE('',*,*,#104,.T.);
#139=ORIENTED_EDGE('',*,*,#96,.T.);
#140=ORIENTED_EDGE('',*,*,#108,.F.);
#141=ORIENTED_EDGE('',*,*,#109,.F.);
#142=ORIENTED_EDGE('',*,*,#110,.T.);
#143=ORIENTED_EDGE('',*,*,#102,.T.);
#144=ORIENTED_EDGE('',*,*,#101,.T.);
#145=ORIENTED_EDGE('',*,*,#110,.F.);
#146=ORIENTED_EDGE('',*,*,#107,.T.);
#147=ORIENTED_EDGE('',*,*,#111,.T.);
#148=ORIENTED_EDGE('',*,*,#109,.T.);
#149=ORIENTED_EDGE('',*,*,#108,.T.);
#150=ORIENTED_EDGE('',*,*,#111,.F.);
#151=ORIENTED_EDGE('',*,*,#106,.T.);
#152=CONICAL_SURFACE('',#180,28.4,0.785398163397448);
#153=CONICAL_SURFACE('',#187,29.755,0.785398163397448);
#154=CONICAL_SURFACE('',#202,31.3761538065675,1.22173047639603);
#155=ADVANCED_FACE('',(#29),#152,.F.);
#156=ADVANCED_FACE('',(#30,#23),#26,.T.);
#157=ADVANCED_FACE('',(#31),#19,.F.);
#158=ADVANCED_FACE('',(#32),#153,.T.);
#159=ADVANCED_FACE('',(#33,#24),#27,.F.);
#160=ADVANCED_FACE('',(#34),#20,.T.);
#161=ADVANCED_FACE('',(#35),#21,.T.);
#162=ADVANCED_FACE('',(#36,#25),#28,.T.);
#163=ADVANCED_FACE('',(#37),#22,.T.);
#164=ADVANCED_FACE('',(#38),#154,.T.);
#165=CLOSED_SHELL('',(#155,#156,#157,#158,#159,#160,#161,#162,#163,#164));
#166=DERIVED_UNIT_ELEMENT(#168,1.);
#167=DERIVED_UNIT_ELEMENT(#316,3.);
#168=(
MASS_UNIT()
NAMED_UNIT(*)
SI_UNIT(.KILO.,.GRAM.)
);
#169=DERIVED_UNIT((#166,#167));
#170=MEASURE_REPRESENTATION_ITEM('density measure',
POSITIVE_RATIO_MEASURE(7850.),#169);
#171=PROPERTY_DEFINITION_REPRESENTATION(#176,#173);
#172=PROPERTY_DEFINITION_REPRESENTATION(#177,#174);
#173=REPRESENTATION('material name',(#175),#313);
#174=REPRESENTATION('density',(#170),#313);
#175=DESCRIPTIVE_REPRESENTATION_ITEM('Steel','Steel');
#176=PROPERTY_DEFINITION('material property','material name',#328);
#177=PROPERTY_DEFINITION('material property','density of part',#328);
#178=AXIS2_PLACEMENT_3D('placement',#263,#204,#205);
#179=AXIS2_PLACEMENT_3D('placement',#264,#206,#207);
#180=AXIS2_PLACEMENT_3D('',#265,#208,#209);
#181=AXIS2_PLACEMENT_3D('',#267,#210,#211);
#182=AXIS2_PLACEMENT_3D('',#270,#213,#214);
#183=AXIS2_PLACEMENT_3D('',#271,#215,#216);
#184=AXIS2_PLACEMENT_3D('',#273,#217,#218);
#185=AXIS2_PLACEMENT_3D('',#274,#219,#220);
#186=AXIS2_PLACEMENT_3D('',#276,#221,#222);
#187=AXIS2_PLACEMENT_3D('',#278,#224,#225);
#188=AXIS2_PLACEMENT_3D('',#280,#226,#227);
#189=AXIS2_PLACEMENT_3D('',#283,#229,#230);
#190=AXIS2_PLACEMENT_3D('',#284,#231,#232);
#191=AXIS2_PLACEMENT_3D('',#287,#233,#234);
#192=AXIS2_PLACEMENT_3D('',#288,#235,#236);
#193=AXIS2_PLACEMENT_3D('',#289,#237,#238);
#194=AXIS2_PLACEMENT_3D('',#291,#240,#241);
#195=AXIS2_PLACEMENT_3D('',#293,#242,#243);
#196=AXIS2_PLACEMENT_3D('',#297,#245,#246);
#197=AXIS2_PLACEMENT_3D('',#298,#247,#248);
#198=AXIS2_PLACEMENT_3D('',#299,#249,#250);
#199=AXIS2_PLACEMENT_3D('',#300,#251,#252);
#200=AXIS2_PLACEMENT_3D('',#303,#253,#254);
#201=AXIS2_PLACEMENT_3D('',#304,#255,#256);
#202=AXIS2_PLACEMENT_3D('',#306,#258,#259);
#203=AXIS2_PLACEMENT_3D('',#308,#261,#262);
#204=DIRECTION('axis',(0.,0.,1.));
#205=DIRECTION('refdir',(1.,0.,0.));
#206=DIRECTION('axis',(0.,0.,1.));
#207=DIRECTION('refdir',(1.,0.,0.));
#208=DIRECTION('center_axis',(0.,1.26882631385732E-16,1.));
#209=DIRECTION('ref_axis',(1.,0.,0.));
#210=DIRECTION('center_axis',(0.,-1.26882631385732E-16,-1.));
#211=DIRECTION('ref_axis',(1.,0.,0.));
#212=DIRECTION('',(-0.707106781186547,1.76315174691194E-16,0.707106781186547));
#213=DIRECTION('center_axis',(0.,1.26882631385732E-16,1.));
#214=DIRECTION('ref_axis',(1.,0.,0.));
#215=DIRECTION('center_axis',(0.,1.26882631385732E-16,1.));
#216=DIRECTION('ref_axis',(1.,0.,0.));
#217=DIRECTION('center_axis',(0.,-1.26882631385732E-16,-1.));
#218=DIRECTION('ref_axis',(1.,0.,0.));
#219=DIRECTION('center_axis',(0.,0.,1.));
#220=DIRECTION('ref_axis',(1.,0.,0.));
#221=DIRECTION('center_axis',(0.,1.26882631385732E-16,1.));
#222=DIRECTION('ref_axis',(1.,0.,0.));
#223=DIRECTION('',(0.,0.,1.));
#224=DIRECTION('center_axis',(0.,1.26882631385732E-16,1.));
#225=DIRECTION('ref_axis',(1.,0.,0.));
#226=DIRECTION('center_axis',(0.,-1.26882631385732E-16,-1.));
#227=DIRECTION('ref_axis',(1.,0.,0.));
#228=DIRECTION('',(0.707106781186547,-3.12396344409495E-18,-0.707106781186547));
#229=DIRECTION('center_axis',(0.,1.26882631385732E-16,1.));
#230=DIRECTION('ref_axis',(1.,0.,0.));
#231=DIRECTION('center_axis',(0.,1.26882631385732E-16,1.));
#232=DIRECTION('ref_axis',(1.,0.,0.));
#233=DIRECTION('center_axis',(0.,-1.26882631385732E-16,-1.));
#234=DIRECTION('ref_axis',(0.,1.,-1.26882631385732E-16));
#235=DIRECTION('center_axis',(0.,-1.26882631385732E-16,-1.));
#236=DIRECTION('ref_axis',(0.,1.,-1.26882631385732E-16));
#237=DIRECTION('center_axis',(0.,1.26882631385732E-16,1.));
#238=DIRECTION('ref_axis',(1.,0.,0.));
#239=DIRECTION('',(0.,-1.26882631385732E-16,-1.));
#240=DIRECTION('center_axis',(0.,1.26882631385732E-16,1.));
#241=DIRECTION('ref_axis',(-1.,0.,0.));
#242=DIRECTION('center_axis',(0.,-1.26882631385732E-16,-1.));
#243=DIRECTION('ref_axis',(-1.,0.,0.));
#244=DIRECTION('',(0.,1.26882631385732E-16,1.));
#245=DIRECTION('center_axis',(0.,1.26882631385732E-16,1.));
#246=DIRECTION('ref_axis',(-1.,0.,0.));
#247=DIRECTION('center_axis',(0.,1.26882631385732E-16,1.));
#248=DIRECTION('ref_axis',(-1.,0.,0.));
#249=DIRECTION('center_axis',(0.,-1.26882631385732E-16,-1.));
#250=DIRECTION('ref_axis',(-1.,0.,0.));
#251=DIRECTION('center_axis',(0.,-1.26882631385732E-16,-1.));
#252=DIRECTION('ref_axis',(0.,1.,-1.26882631385732E-16));
#253=DIRECTION('center_axis',(0.,-1.26882631385732E-16,-1.));
#254=DIRECTION('ref_axis',(1.,0.,0.));
#255=DIRECTION('center_axis',(0.,-1.26882631385732E-16,-1.));
#256=DIRECTION('ref_axis',(1.,0.,0.));
#257=DIRECTION('',(0.,1.26882631385732E-16,1.));
#258=DIRECTION('center_axis',(0.,-1.26882631385732E-16,-1.));
#259=DIRECTION('ref_axis',(0.,1.,-1.26882631385732E-16));
#260=DIRECTION('',(1.15079156022785E-16,0.939692620785908,0.342020143325669));
#261=DIRECTION('',(0.,0.,1.));
#262=DIRECTION('',(1.,0.,0.));
#263=CARTESIAN_POINT('',(0.,0.,0.));
#264=CARTESIAN_POINT('',(0.,0.,0.));
#265=CARTESIAN_POINT('Origin',(0.,3.29894841602904E-16,14.4));
#266=CARTESIAN_POINT('',(-25.8,3.15958874180017E-15,11.8));
#267=CARTESIAN_POINT('Origin',(0.,0.,11.8));
#268=CARTESIAN_POINT('',(-31.,-3.13661539415099E-15,17.));
#269=CARTESIAN_POINT('',(-28.4,3.80789175118139E-15,14.4));
#270=CARTESIAN_POINT('Origin',(0.,6.59789683205807E-16,17.));
#271=CARTESIAN_POINT('Origin',(0.,2.15700473355745E-15,17.));
#272=CARTESIAN_POINT('',(-31.75,-1.7312488537354E-15,17.));
#273=CARTESIAN_POINT('Origin',(0.,2.15700473355745E-15,17.));
#274=CARTESIAN_POINT('Origin',(0.,0.,0.));
#275=CARTESIAN_POINT('',(-25.8,-3.15958874180017E-15,0.));
#276=CARTESIAN_POINT('Origin',(0.,0.,0.));
#277=CARTESIAN_POINT('',(-25.8,-3.15958874180017E-15,0.));
#278=CARTESIAN_POINT('Origin',(0.,1.64883979485759E-15,12.995));
#279=CARTESIAN_POINT('',(-31.75,5.79022423176497E-15,14.99));
#280=CARTESIAN_POINT('Origin',(0.,1.90197064447212E-15,14.99));
#281=CARTESIAN_POINT('',(-27.76,-2.00391056919E-15,11.));
#282=CARTESIAN_POINT('',(-29.755,-1.99509675600536E-15,12.995));
#283=CARTESIAN_POINT('Origin',(0.,1.39570894524305E-15,11.));
#284=CARTESIAN_POINT('Origin',(0.,1.39570894524305E-15,11.));
#285=CARTESIAN_POINT('',(0.,27.7523076131351,11.));
#286=CARTESIAN_POINT('',(-3.39867746873786E-15,-27.7523076131351,11.));
#287=CARTESIAN_POINT('Origin',(0.,1.26882631385732E-16,11.));
#288=CARTESIAN_POINT('Origin',(0.,1.26882631385732E-16,11.));
#289=CARTESIAN_POINT('Origin',(0.,1.39570894524305E-15,11.));
#290=CARTESIAN_POINT('',(-31.75,-2.49254464204979E-15,11.));
#291=CARTESIAN_POINT('Origin',(0.,0.,0.));
#292=CARTESIAN_POINT('',(32.5,-3.9801020972289E-15,5.05005827280274E-31));
#293=CARTESIAN_POINT('Origin',(0.,0.,0.));
#294=CARTESIAN_POINT('',(32.5,4.51680618610397E-15,4.22992558566551));
#295=CARTESIAN_POINT('',(32.5,3.9801020972289E-15,-5.05005827280274E-31));
#296=CARTESIAN_POINT('',(-3.9801020972289E-15,-32.5,4.22992558566551));
#297=CARTESIAN_POINT('Origin',(0.,5.36704088875074E-16,4.22992558566551));
#298=CARTESIAN_POINT('Origin',(0.,5.36704088875074E-16,4.22992558566551));
#299=CARTESIAN_POINT('Origin',(0.,0.,0.));
#300=CARTESIAN_POINT('Origin',(0.,3.77979824959024E-16,12.9789721479683));
#301=CARTESIAN_POINT('',(0.,27.7523076131351,5.9579442959366));
#302=CARTESIAN_POINT('',(-3.39867746873786E-15,-27.7523076131351,5.9579442959366));
#303=CARTESIAN_POINT('Origin',(0.,-5.12866663939273E-16,5.9579442959366));
#304=CARTESIAN_POINT('Origin',(0.,-5.12866663939273E-16,5.9579442959366));
#305=CARTESIAN_POINT('',(-3.39867746873786E-15,-27.7523076131351,12.9789721479683));
#306=CARTESIAN_POINT('Origin',(0.,-6.80221320797982E-16,4.6389721479683));
#307=CARTESIAN_POINT('',(-3.8424706328768E-15,-31.3761538065675,4.6389721479683));
#308=CARTESIAN_POINT('',(0.,0.,0.));
#309=UNCERTAINTY_MEASURE_WITH_UNIT(LENGTH_MEASURE(0.01),#315,
'DISTANCE_ACCURACY_VALUE',
'Maximum model space distance between geometric entities at asserted c
onnectivities');
#310=UNCERTAINTY_MEASURE_WITH_UNIT(LENGTH_MEASURE(0.01),#315,
'DISTANCE_ACCURACY_VALUE',
'Maximum model space distance between geometric entities at asserted c
onnectivities');
#311=UNCERTAINTY_MEASURE_WITH_UNIT(LENGTH_MEASURE(0.01),#315,
'DISTANCE_ACCURACY_VALUE',
'Maximum model space distance between geometric entities at asserted c
onnectivities');
#312=(
GEOMETRIC_REPRESENTATION_CONTEXT(3)
GLOBAL_UNCERTAINTY_ASSIGNED_CONTEXT((#309))
GLOBAL_UNIT_ASSIGNED_CONTEXT((#315,#317,#318))
REPRESENTATION_CONTEXT('','3D')
);
#313=(
GEOMETRIC_REPRESENTATION_CONTEXT(3)
GLOBAL_UNCERTAINTY_ASSIGNED_CONTEXT((#310))
GLOBAL_UNIT_ASSIGNED_CONTEXT((#315,#317,#318))
REPRESENTATION_CONTEXT('','3D')
);
#314=(
GEOMETRIC_REPRESENTATION_CONTEXT(3)
GLOBAL_UNCERTAINTY_ASSIGNED_CONTEXT((#311))
GLOBAL_UNIT_ASSIGNED_CONTEXT((#315,#317,#318))
REPRESENTATION_CONTEXT('','3D')
);
#315=(
LENGTH_UNIT()
NAMED_UNIT(*)
SI_UNIT(.MILLI.,.METRE.)
);
#316=(
LENGTH_UNIT()
NAMED_UNIT(*)
SI_UNIT($,.METRE.)
);
#317=(
NAMED_UNIT(*)
PLANE_ANGLE_UNIT()
SI_UNIT($,.RADIAN.)
);
#318=(
NAMED_UNIT(*)
SI_UNIT($,.STERADIAN.)
SOLID_ANGLE_UNIT()
);
#319=SHAPE_DEFINITION_REPRESENTATION(#321,#324);
#320=SHAPE_DEFINITION_REPRESENTATION(#322,#325);
#321=PRODUCT_DEFINITION_SHAPE('',$,#327);
#322=PRODUCT_DEFINITION_SHAPE('',$,#328);
#323=PRODUCT_DEFINITION_SHAPE($,$,#14);
#324=SHAPE_REPRESENTATION('',(#178,#203),#312);
#325=SHAPE_REPRESENTATION('',(#179),#313);
#326=PRODUCT_DEFINITION_CONTEXT('part definition',#334,'design');
#327=PRODUCT_DEFINITION('VBAND 51 - 63.5','VBAND 51 - 63.5 v1',#329,#326);
#328=PRODUCT_DEFINITION('Component1','Component1',#330,#326);
#329=PRODUCT_DEFINITION_FORMATION('',$,#336);
#330=PRODUCT_DEFINITION_FORMATION('',$,#337);
#331=PRODUCT_RELATED_PRODUCT_CATEGORY('VBAND 51 - 63.5 v1',
'VBAND 51 - 63.5 v1',(#336));
#332=PRODUCT_RELATED_PRODUCT_CATEGORY('Component1','Component1',(#337));
#333=APPLICATION_PROTOCOL_DEFINITION('international standard',
'automotive_design',2009,#334);
#334=APPLICATION_CONTEXT(
'Core Data for Automotive Mechanical Design Process');
#335=PRODUCT_CONTEXT('part definition',#334,'mechanical');
#336=PRODUCT('VBAND 51 - 63.5','VBAND 51 - 63.5 v1',$,(#335));
#337=PRODUCT('Component1','Component1',$,(#335));
#338=PRESENTATION_STYLE_ASSIGNMENT((#339));
#339=SURFACE_STYLE_USAGE(.BOTH.,#340);
#340=SURFACE_SIDE_STYLE('',(#341));
#341=SURFACE_STYLE_FILL_AREA(#342);
#342=FILL_AREA_STYLE('Steel - Satin',(#343));
#343=FILL_AREA_STYLE_COLOUR('Steel - Satin',#344);
#344=COLOUR_RGB('Steel - Satin',0.627450980392157,0.627450980392157,0.627450980392157);
ENDSEC;
END-ISO-10303-21;
