ISO-10303-21;
HEADER;
FILE_DESCRIPTION(('CATIA V5 STEP Exchange'),'2;1');

FILE_NAME('D:\\quentin\\bricolage\\projet char-latant\\Mk0.1\\CAO\\chassis\\suspensions\\SUSPENSION LONGUE\\BARRE DE TORSION LONGUE G.stp','2020-04-05T20:16:21+00:00',('none'),('none'),'CATIA Version 5 Release 20 GA (IN-10)','CATIA V5 STEP AP203','none');

FILE_SCHEMA(('CONFIG_CONTROL_DESIGN'));

ENDSEC;
/* file written by CATIA V5R20 */
DATA;
#5=PRODUCT('BARRE DE TORSION LONGUE G','','',(#2)) ;
#1=APPLICATION_CONTEXT('configuration controlled 3D design of mechanical parts and assemblies') ;
#14=PRODUCT_DEFINITION('',' ',#6,#3) ;
#16=SECURITY_CLASSIFICATION(' ',' ',#15) ;
#15=SECURITY_CLASSIFICATION_LEVEL('unclassified') ;
#47=CARTESIAN_POINT(' ',(0.,0.,0.)) ;
#52=CARTESIAN_POINT('Axis2P3D Location',(0.,303.5,0.)) ;
#57=CARTESIAN_POINT('Axis2P3D Location',(0.,303.5,0.)) ;
#61=CARTESIAN_POINT('Vertex',(1.9364916731,303.5,3.5)) ;
#63=CARTESIAN_POINT('Vertex',(4.,303.5,4.89842541529E-016)) ;
#66=CARTESIAN_POINT('Axis2P3D Location',(0.,303.5,0.)) ;
#70=CARTESIAN_POINT('Vertex',(1.9364916731,303.5,-3.5)) ;
#73=CARTESIAN_POINT('Line Origine',(-1.11022302463E-015,303.5,-3.5)) ;
#77=CARTESIAN_POINT('Vertex',(-1.9364916731,303.5,-3.5)) ;
#80=CARTESIAN_POINT('Axis2P3D Location',(0.,303.5,0.)) ;
#84=CARTESIAN_POINT('Vertex',(-4.,303.5,0.)) ;
#87=CARTESIAN_POINT('Axis2P3D Location',(0.,303.5,0.)) ;
#91=CARTESIAN_POINT('Vertex',(-1.9364916731,303.5,3.5)) ;
#94=CARTESIAN_POINT('Line Origine',(-4.4408920985E-016,303.5,3.5)) ;
#108=CARTESIAN_POINT('Axis2P3D Location',(0.,0.,0.)) ;
#113=CARTESIAN_POINT('Line Origine',(4.,0.,4.89842541529E-016)) ;
#117=CARTESIAN_POINT('Vertex',(4.,-303.5,4.89842541529E-016)) ;
#120=CARTESIAN_POINT('Axis2P3D Location',(0.,-303.5,0.)) ;
#124=CARTESIAN_POINT('Vertex',(-4.,-303.5,0.)) ;
#127=CARTESIAN_POINT('Line Origine',(-4.,0.,-9.79685083058E-016)) ;
#132=CARTESIAN_POINT('Line Origine',(-1.9364916731,0.,-3.5)) ;
#136=CARTESIAN_POINT('Vertex',(-1.9364916731,278.5,-3.5)) ;
#139=CARTESIAN_POINT('Axis2P3D Location',(0.,278.5,0.)) ;
#143=CARTESIAN_POINT('Vertex',(1.9364916731,278.5,-3.5)) ;
#146=CARTESIAN_POINT('Line Origine',(1.9364916731,0.,-3.5)) ;
#162=CARTESIAN_POINT('Axis2P3D Location',(0.,278.5,0.)) ;
#167=CARTESIAN_POINT('Line Origine',(-6.66133814775E-016,278.5,3.5)) ;
#171=CARTESIAN_POINT('Vertex',(1.9364916731,278.5,3.5)) ;
#173=CARTESIAN_POINT('Vertex',(-1.9364916731,278.5,3.5)) ;
#176=CARTESIAN_POINT('Axis2P3D Location',(-1.11022302463E-015,278.5,2.22044604925E-015)) ;
#186=CARTESIAN_POINT('Axis2P3D Location',(-5.,303.5,3.5)) ;
#191=CARTESIAN_POINT('Line Origine',(1.9364916731,291.,3.5)) ;
#196=CARTESIAN_POINT('Line Origine',(-1.9364916731,291.,3.5)) ;
#208=CARTESIAN_POINT('Line Origine',(4.4408920985E-016,278.5,-3.5)) ;
#218=CARTESIAN_POINT('Axis2P3D Location',(-5.,303.5,-3.5)) ;
#230=CARTESIAN_POINT('Axis2P3D Location',(0.,-303.5,0.)) ;
#234=CARTESIAN_POINT('Vertex',(2.64575131106,-303.5,3.)) ;
#237=CARTESIAN_POINT('Axis2P3D Location',(0.,-303.5,0.)) ;
#241=CARTESIAN_POINT('Vertex',(-2.64575131106,-303.5,3.)) ;
#244=CARTESIAN_POINT('Line Origine',(-2.64575131106,0.,3.)) ;
#248=CARTESIAN_POINT('Vertex',(-2.64575131106,-248.5,3.)) ;
#251=CARTESIAN_POINT('Axis2P3D Location',(0.,-248.5,0.)) ;
#255=CARTESIAN_POINT('Vertex',(2.64575131106,-248.5,3.)) ;
#258=CARTESIAN_POINT('Line Origine',(2.64575131106,0.,3.)) ;
#278=CARTESIAN_POINT('Axis2P3D Location',(0.,-303.5,0.)) ;
#283=CARTESIAN_POINT('Line Origine',(0.,-303.5,3.)) ;
#295=CARTESIAN_POINT('Axis2P3D Location',(0.,-248.5,0.)) ;
#300=CARTESIAN_POINT('Line Origine',(-4.4408920985E-016,-248.5,3.)) ;
#310=CARTESIAN_POINT('Axis2P3D Location',(4.33051681519,-303.5,3.)) ;
#53=DIRECTION('Axis2P3D Direction',(0.,1.,-0.)) ;
#54=DIRECTION('Axis2P3D XDirection',(-1.,0.,0.)) ;
#58=DIRECTION('Axis2P3D Direction',(0.,1.,-0.)) ;
#67=DIRECTION('Axis2P3D Direction',(0.,1.,-0.)) ;
#74=DIRECTION('Vector Direction',(1.,0.,-2.29326681864E-016)) ;
#81=DIRECTION('Axis2P3D Direction',(0.,1.,-0.)) ;
#88=DIRECTION('Axis2P3D Direction',(0.,1.,-0.)) ;
#95=DIRECTION('Vector Direction',(1.,0.,-2.29326681864E-016)) ;
#109=DIRECTION('Axis2P3D Direction',(0.,1.,0.)) ;
#110=DIRECTION('Axis2P3D XDirection',(-1.,0.,0.)) ;
#114=DIRECTION('Vector Direction',(0.,1.,0.)) ;
#121=DIRECTION('Axis2P3D Direction',(0.,1.,0.)) ;
#128=DIRECTION('Vector Direction',(0.,1.,0.)) ;
#133=DIRECTION('Vector Direction',(0.,1.,0.)) ;
#140=DIRECTION('Axis2P3D Direction',(0.,1.,0.)) ;
#147=DIRECTION('Vector Direction',(0.,1.,0.)) ;
#163=DIRECTION('Axis2P3D Direction',(0.,1.,-0.)) ;
#164=DIRECTION('Axis2P3D XDirection',(-1.,0.,0.)) ;
#168=DIRECTION('Vector Direction',(1.,0.,-2.29326681864E-016)) ;
#177=DIRECTION('Axis2P3D Direction',(0.,1.,-0.)) ;
#187=DIRECTION('Axis2P3D Direction',(-1.33226762955E-016,-0.,-1.)) ;
#188=DIRECTION('Axis2P3D XDirection',(1.,-0.,-1.33226762955E-016)) ;
#192=DIRECTION('Vector Direction',(0.,-1.,0.)) ;
#197=DIRECTION('Vector Direction',(0.,-1.,0.)) ;
#209=DIRECTION('Vector Direction',(1.,0.,-2.29326681864E-016)) ;
#219=DIRECTION('Axis2P3D Direction',(-1.33226762955E-016,-0.,-1.)) ;
#220=DIRECTION('Axis2P3D XDirection',(1.,-0.,-1.33226762955E-016)) ;
#231=DIRECTION('Axis2P3D Direction',(0.,1.,0.)) ;
#238=DIRECTION('Axis2P3D Direction',(0.,1.,0.)) ;
#245=DIRECTION('Vector Direction',(0.,1.,0.)) ;
#252=DIRECTION('Axis2P3D Direction',(0.,1.,0.)) ;
#259=DIRECTION('Vector Direction',(0.,1.,0.)) ;
#279=DIRECTION('Axis2P3D Direction',(0.,1.,-0.)) ;
#280=DIRECTION('Axis2P3D XDirection',(-1.,0.,0.)) ;
#284=DIRECTION('Vector Direction',(-1.,0.,0.)) ;
#296=DIRECTION('Axis2P3D Direction',(0.,-1.,0.)) ;
#297=DIRECTION('Axis2P3D XDirection',(1.,0.,0.)) ;
#301=DIRECTION('Vector Direction',(-1.,0.,0.)) ;
#311=DIRECTION('Axis2P3D Direction',(0.,0.,-1.)) ;
#312=DIRECTION('Axis2P3D XDirection',(-1.,0.,0.)) ;
#48=AXIS2_PLACEMENT_3D(' ',#47,$,$) ;
#55=AXIS2_PLACEMENT_3D('Plane Axis2P3D',#52,#53,#54) ;
#59=AXIS2_PLACEMENT_3D('Circle Axis2P3D',#57,#58,$) ;
#68=AXIS2_PLACEMENT_3D('Circle Axis2P3D',#66,#67,$) ;
#82=AXIS2_PLACEMENT_3D('Circle Axis2P3D',#80,#81,$) ;
#89=AXIS2_PLACEMENT_3D('Circle Axis2P3D',#87,#88,$) ;
#111=AXIS2_PLACEMENT_3D('Cylinder Axis2P3D',#108,#109,#110) ;
#122=AXIS2_PLACEMENT_3D('Circle Axis2P3D',#120,#121,$) ;
#141=AXIS2_PLACEMENT_3D('Circle Axis2P3D',#139,#140,$) ;
#165=AXIS2_PLACEMENT_3D('Plane Axis2P3D',#162,#163,#164) ;
#178=AXIS2_PLACEMENT_3D('Circle Axis2P3D',#176,#177,$) ;
#189=AXIS2_PLACEMENT_3D('Plane Axis2P3D',#186,#187,#188) ;
#221=AXIS2_PLACEMENT_3D('Plane Axis2P3D',#218,#219,#220) ;
#232=AXIS2_PLACEMENT_3D('Circle Axis2P3D',#230,#231,$) ;
#239=AXIS2_PLACEMENT_3D('Circle Axis2P3D',#237,#238,$) ;
#253=AXIS2_PLACEMENT_3D('Circle Axis2P3D',#251,#252,$) ;
#281=AXIS2_PLACEMENT_3D('Plane Axis2P3D',#278,#279,#280) ;
#298=AXIS2_PLACEMENT_3D('Plane Axis2P3D',#295,#296,#297) ;
#313=AXIS2_PLACEMENT_3D('Plane Axis2P3D',#310,#311,#312) ;
#40=PRODUCT_DEFINITION_SHAPE(' ',' ',#14) ;
#31=APPROVAL_PERSON_ORGANIZATION(#25,#21,#19) ;
#25=PERSON_AND_ORGANIZATION(#22,#23) ;
#22=PERSON(' ',' ',' ',$,$,$) ;
#23=ORGANIZATION(' ',' ',' ') ;
#21=APPROVAL(#20,' ') ;
#20=APPROVAL_STATUS('not_yet_approved') ;
#19=APPROVAL_ROLE('APPROVER') ;
#13=DATE_AND_TIME(#11,#12) ;
#12=LOCAL_TIME(22,16,21.,#10) ;
#10=COORDINATED_UNIVERSAL_TIME_OFFSET(0,0,.AHEAD.) ;
#100=ORIENTED_EDGE('',*,*,#65,.T.) ;
#101=ORIENTED_EDGE('',*,*,#72,.T.) ;
#102=ORIENTED_EDGE('',*,*,#79,.F.) ;
#103=ORIENTED_EDGE('',*,*,#86,.T.) ;
#104=ORIENTED_EDGE('',*,*,#93,.T.) ;
#105=ORIENTED_EDGE('',*,*,#98,.F.) ;
#152=ORIENTED_EDGE('',*,*,#72,.F.) ;
#153=ORIENTED_EDGE('',*,*,#119,.F.) ;
#154=ORIENTED_EDGE('',*,*,#126,.T.) ;
#155=ORIENTED_EDGE('',*,*,#131,.T.) ;
#156=ORIENTED_EDGE('',*,*,#86,.F.) ;
#157=ORIENTED_EDGE('',*,*,#138,.T.) ;
#158=ORIENTED_EDGE('',*,*,#145,.F.) ;
#159=ORIENTED_EDGE('',*,*,#150,.F.) ;
#182=ORIENTED_EDGE('',*,*,#175,.T.) ;
#183=ORIENTED_EDGE('',*,*,#180,.T.) ;
#202=ORIENTED_EDGE('',*,*,#175,.F.) ;
#203=ORIENTED_EDGE('',*,*,#195,.F.) ;
#204=ORIENTED_EDGE('',*,*,#98,.T.) ;
#205=ORIENTED_EDGE('',*,*,#200,.T.) ;
#214=ORIENTED_EDGE('',*,*,#212,.T.) ;
#215=ORIENTED_EDGE('',*,*,#145,.T.) ;
#224=ORIENTED_EDGE('',*,*,#150,.T.) ;
#225=ORIENTED_EDGE('',*,*,#212,.F.) ;
#226=ORIENTED_EDGE('',*,*,#138,.F.) ;
#227=ORIENTED_EDGE('',*,*,#79,.T.) ;
#264=ORIENTED_EDGE('',*,*,#236,.T.) ;
#265=ORIENTED_EDGE('',*,*,#119,.T.) ;
#266=ORIENTED_EDGE('',*,*,#65,.F.) ;
#267=ORIENTED_EDGE('',*,*,#195,.T.) ;
#268=ORIENTED_EDGE('',*,*,#180,.F.) ;
#269=ORIENTED_EDGE('',*,*,#200,.F.) ;
#270=ORIENTED_EDGE('',*,*,#93,.F.) ;
#271=ORIENTED_EDGE('',*,*,#131,.F.) ;
#272=ORIENTED_EDGE('',*,*,#243,.T.) ;
#273=ORIENTED_EDGE('',*,*,#250,.T.) ;
#274=ORIENTED_EDGE('',*,*,#257,.F.) ;
#275=ORIENTED_EDGE('',*,*,#262,.F.) ;
#289=ORIENTED_EDGE('',*,*,#287,.F.) ;
#290=ORIENTED_EDGE('',*,*,#243,.F.) ;
#291=ORIENTED_EDGE('',*,*,#126,.F.) ;
#292=ORIENTED_EDGE('',*,*,#236,.F.) ;
#306=ORIENTED_EDGE('',*,*,#304,.T.) ;
#307=ORIENTED_EDGE('',*,*,#257,.T.) ;
#316=ORIENTED_EDGE('',*,*,#304,.F.) ;
#317=ORIENTED_EDGE('',*,*,#250,.F.) ;
#318=ORIENTED_EDGE('',*,*,#287,.T.) ;
#319=ORIENTED_EDGE('',*,*,#262,.T.) ;
#51=CLOSED_SHELL('Closed Shell',(#107,#161,#185,#207,#217,#229,#277,#294,#309,#321)) ;
#75=VECTOR('Line Direction',#74,1.) ;
#96=VECTOR('Line Direction',#95,1.) ;
#115=VECTOR('Line Direction',#114,1.) ;
#129=VECTOR('Line Direction',#128,1.) ;
#134=VECTOR('Line Direction',#133,1.) ;
#148=VECTOR('Line Direction',#147,1.) ;
#169=VECTOR('Line Direction',#168,1.) ;
#193=VECTOR('Line Direction',#192,1.) ;
#198=VECTOR('Line Direction',#197,1.) ;
#210=VECTOR('Line Direction',#209,1.) ;
#246=VECTOR('Line Direction',#245,1.) ;
#260=VECTOR('Line Direction',#259,1.) ;
#285=VECTOR('Line Direction',#284,1.) ;
#302=VECTOR('Line Direction',#301,1.) ;
#323=ADVANCED_BREP_SHAPE_REPRESENTATION('NONE',(#322),#46) ;
#49=SHAPE_REPRESENTATION(' ',(#48),#46) ;
#107=ADVANCED_FACE('Corps principal',(#106),#56,.T.) ;
#161=ADVANCED_FACE('Corps principal',(#160),#112,.T.) ;
#185=ADVANCED_FACE('Corps principal',(#184),#166,.T.) ;
#207=ADVANCED_FACE('Corps principal',(#206),#190,.F.) ;
#217=ADVANCED_FACE('Corps principal',(#216),#166,.T.) ;
#229=ADVANCED_FACE('Corps principal',(#228),#222,.T.) ;
#277=ADVANCED_FACE('Corps principal',(#276),#112,.T.) ;
#294=ADVANCED_FACE('Corps principal',(#293),#282,.F.) ;
#309=ADVANCED_FACE('Corps principal',(#308),#299,.T.) ;
#321=ADVANCED_FACE('Corps principal',(#320),#314,.F.) ;
#4=APPLICATION_PROTOCOL_DEFINITION('international standard','config_control_design',1994,#1) ;
#32=APPROVAL_DATE_TIME(#13,#21) ;
#322=MANIFOLD_SOLID_BREP('Corps principal',#51) ;
#11=CALENDAR_DATE(2020,5,4) ;
#30=CC_DESIGN_APPROVAL(#21,(#16,#6,#14)) ;
#18=CC_DESIGN_DATE_AND_TIME_ASSIGNMENT(#13,#17,(#16)) ;
#29=CC_DESIGN_DATE_AND_TIME_ASSIGNMENT(#13,#28,(#14)) ;
#17=DATE_TIME_ROLE('classification_date') ;
#28=DATE_TIME_ROLE('creation_date') ;
#27=CC_DESIGN_PERSON_AND_ORGANIZATION_ASSIGNMENT(#25,#26,(#16)) ;
#33=CC_DESIGN_PERSON_AND_ORGANIZATION_ASSIGNMENT(#25,#34,(#6)) ;
#35=CC_DESIGN_PERSON_AND_ORGANIZATION_ASSIGNMENT(#25,#36,(#6,#14)) ;
#37=CC_DESIGN_PERSON_AND_ORGANIZATION_ASSIGNMENT(#25,#38,(#5)) ;
#26=PERSON_AND_ORGANIZATION_ROLE('classification_officer') ;
#34=PERSON_AND_ORGANIZATION_ROLE('design_supplier') ;
#36=PERSON_AND_ORGANIZATION_ROLE('creator') ;
#38=PERSON_AND_ORGANIZATION_ROLE('design_owner') ;
#39=CC_DESIGN_SECURITY_CLASSIFICATION(#16,(#6)) ;
#60=CIRCLE('generated circle',#59,4.) ;
#69=CIRCLE('generated circle',#68,4.) ;
#83=CIRCLE('generated circle',#82,4.) ;
#90=CIRCLE('generated circle',#89,4.) ;
#123=CIRCLE('generated circle',#122,4.) ;
#142=CIRCLE('generated circle',#141,4.) ;
#179=CIRCLE('generated circle',#178,4.) ;
#233=CIRCLE('generated circle',#232,4.) ;
#240=CIRCLE('generated circle',#239,4.) ;
#254=CIRCLE('generated circle',#253,4.) ;
#324=SHAPE_REPRESENTATION_RELATIONSHIP(' ',' ',#49,#323) ;
#112=CYLINDRICAL_SURFACE('generated cylinder',#111,4.) ;
#3=DESIGN_CONTEXT(' ',#1,'design') ;
#65=EDGE_CURVE('',#62,#64,#60,.T.) ;
#72=EDGE_CURVE('',#64,#71,#69,.T.) ;
#79=EDGE_CURVE('',#78,#71,#76,.T.) ;
#86=EDGE_CURVE('',#78,#85,#83,.T.) ;
#93=EDGE_CURVE('',#85,#92,#90,.T.) ;
#98=EDGE_CURVE('',#62,#92,#97,.F.) ;
#119=EDGE_CURVE('',#118,#64,#116,.T.) ;
#126=EDGE_CURVE('',#118,#125,#123,.T.) ;
#131=EDGE_CURVE('',#125,#85,#130,.T.) ;
#138=EDGE_CURVE('',#78,#137,#135,.F.) ;
#145=EDGE_CURVE('',#144,#137,#142,.T.) ;
#150=EDGE_CURVE('',#71,#144,#149,.F.) ;
#175=EDGE_CURVE('',#172,#174,#170,.F.) ;
#180=EDGE_CURVE('',#174,#172,#179,.T.) ;
#195=EDGE_CURVE('',#62,#172,#194,.T.) ;
#200=EDGE_CURVE('',#92,#174,#199,.T.) ;
#212=EDGE_CURVE('',#137,#144,#211,.T.) ;
#236=EDGE_CURVE('',#235,#118,#233,.T.) ;
#243=EDGE_CURVE('',#125,#242,#240,.T.) ;
#250=EDGE_CURVE('',#242,#249,#247,.T.) ;
#257=EDGE_CURVE('',#256,#249,#254,.F.) ;
#262=EDGE_CURVE('',#235,#256,#261,.T.) ;
#287=EDGE_CURVE('',#242,#235,#286,.F.) ;
#304=EDGE_CURVE('',#249,#256,#303,.F.) ;
#99=EDGE_LOOP('',(#100,#101,#102,#103,#104,#105)) ;
#151=EDGE_LOOP('',(#152,#153,#154,#155,#156,#157,#158,#159)) ;
#181=EDGE_LOOP('',(#182,#183)) ;
#201=EDGE_LOOP('',(#202,#203,#204,#205)) ;
#213=EDGE_LOOP('',(#214,#215)) ;
#223=EDGE_LOOP('',(#224,#225,#226,#227)) ;
#263=EDGE_LOOP('',(#264,#265,#266,#267,#268,#269,#270,#271,#272,#273,#274,#275)) ;
#288=EDGE_LOOP('',(#289,#290,#291,#292)) ;
#305=EDGE_LOOP('',(#306,#307)) ;
#315=EDGE_LOOP('',(#316,#317,#318,#319)) ;
#106=FACE_OUTER_BOUND('',#99,.T.) ;
#160=FACE_OUTER_BOUND('',#151,.T.) ;
#184=FACE_OUTER_BOUND('',#181,.T.) ;
#206=FACE_OUTER_BOUND('',#201,.T.) ;
#216=FACE_OUTER_BOUND('',#213,.T.) ;
#228=FACE_OUTER_BOUND('',#223,.T.) ;
#276=FACE_OUTER_BOUND('',#263,.T.) ;
#293=FACE_OUTER_BOUND('',#288,.T.) ;
#308=FACE_OUTER_BOUND('',#305,.T.) ;
#320=FACE_OUTER_BOUND('',#315,.T.) ;
#45=UNCERTAINTY_MEASURE_WITH_UNIT(LENGTH_MEASURE(0.005),#41,'distance_accuracy_value','CONFUSED CURVE UNCERTAINTY') ;
#76=LINE('Line',#73,#75) ;
#97=LINE('Line',#94,#96) ;
#116=LINE('Line',#113,#115) ;
#130=LINE('Line',#127,#129) ;
#135=LINE('Line',#132,#134) ;
#149=LINE('Line',#146,#148) ;
#170=LINE('Line',#167,#169) ;
#194=LINE('Line',#191,#193) ;
#199=LINE('Line',#196,#198) ;
#211=LINE('Line',#208,#210) ;
#247=LINE('Line',#244,#246) ;
#261=LINE('Line',#258,#260) ;
#286=LINE('Line',#283,#285) ;
#303=LINE('Line',#300,#302) ;
#2=MECHANICAL_CONTEXT(' ',#1,'mechanical') ;
#24=PERSONAL_ADDRESS(' ',' ',' ',' ',' ',' ',' ',' ',' ',' ',' ',' ',(#22),' ') ;
#56=PLANE('Plane',#55) ;
#166=PLANE('Plane',#165) ;
#190=PLANE('Plane',#189) ;
#222=PLANE('Plane',#221) ;
#282=PLANE('Plane',#281) ;
#299=PLANE('Plane',#298) ;
#314=PLANE('Plane',#313) ;
#43=PLANE_ANGLE_MEASURE_WITH_UNIT(PLANE_ANGLE_MEASURE(0.0174532925199),#42) ;
#7=PRODUCT_CATEGORY('part',$) ;
#9=PRODUCT_CATEGORY_RELATIONSHIP(' ',' ',#7,#8) ;
#6=PRODUCT_DEFINITION_FORMATION_WITH_SPECIFIED_SOURCE('',' ',#5,.NOT_KNOWN.) ;
#8=PRODUCT_RELATED_PRODUCT_CATEGORY('detail',$,(#5)) ;
#50=SHAPE_DEFINITION_REPRESENTATION(#40,#49) ;
#62=VERTEX_POINT('',#61) ;
#64=VERTEX_POINT('',#63) ;
#71=VERTEX_POINT('',#70) ;
#78=VERTEX_POINT('',#77) ;
#85=VERTEX_POINT('',#84) ;
#92=VERTEX_POINT('',#91) ;
#118=VERTEX_POINT('',#117) ;
#125=VERTEX_POINT('',#124) ;
#137=VERTEX_POINT('',#136) ;
#144=VERTEX_POINT('',#143) ;
#172=VERTEX_POINT('',#171) ;
#174=VERTEX_POINT('',#173) ;
#235=VERTEX_POINT('',#234) ;
#242=VERTEX_POINT('',#241) ;
#249=VERTEX_POINT('',#248) ;
#256=VERTEX_POINT('',#255) ;
#41=(LENGTH_UNIT()NAMED_UNIT(*)SI_UNIT(.MILLI.,.METRE.)) ;
#42=(NAMED_UNIT(*)PLANE_ANGLE_UNIT()SI_UNIT($,.RADIAN.)) ;
#44=(NAMED_UNIT(*)SI_UNIT($,.STERADIAN.)SOLID_ANGLE_UNIT()) ;
#46=(GEOMETRIC_REPRESENTATION_CONTEXT(3)GLOBAL_UNCERTAINTY_ASSIGNED_CONTEXT((#45))GLOBAL_UNIT_ASSIGNED_CONTEXT((#41,#42,#44))REPRESENTATION_CONTEXT(' ',' ')) ;
ENDSEC;
END-ISO-10303-21;
