ISO-10303-21;
HEADER;
/* Generated by software containing ST-Developer
 * from STEP Tools, Inc. (www.steptools.com) 
 */

FILE_DESCRIPTION(
/* description */ (''),
/* implementation_level */ '2;1');

FILE_NAME(
/* name */ 
'C:\\Users\\antonio.gurciullo\\Documents\\Software\\Autodesk Inventor\\
Cathode_Plasma_controls\\PC_Exo_2\\Cercamic_bush_M.stp',
/* time_stamp */ '2020-04-09T16:35:48+02:00',
/* author */ ('antonio.gurciullo'),
/* organization */ (''),
/* preprocessor_version */ 'ST-DEVELOPER v18',
/* originating_system */ 'Autodesk Inventor 2020',
/* authorisation */ '');

FILE_SCHEMA (('AUTOMOTIVE_DESIGN { 1 0 10303 214 3 1 1 }'));
ENDSEC;

DATA;
#10=MECHANICAL_DESIGN_GEOMETRIC_PRESENTATION_REPRESENTATION('',(#13),#186);
#11=SHAPE_REPRESENTATION_RELATIONSHIP('SRR','None',#193,#12);
#12=ADVANCED_BREP_SHAPE_REPRESENTATION('',(#14),#185);
#13=STYLED_ITEM('',(#202),#14);
#14=MANIFOLD_SOLID_BREP('Solid1',#95);
#15=FACE_BOUND('',#29,.T.);
#16=FACE_BOUND('',#33,.T.);
#17=FACE_BOUND('',#35,.T.);
#18=PLANE('',#118);
#19=PLANE('',#126);
#20=PLANE('',#127);
#21=FACE_OUTER_BOUND('',#27,.T.);
#22=FACE_OUTER_BOUND('',#28,.T.);
#23=FACE_OUTER_BOUND('',#30,.T.);
#24=FACE_OUTER_BOUND('',#31,.T.);
#25=FACE_OUTER_BOUND('',#32,.T.);
#26=FACE_OUTER_BOUND('',#34,.T.);
#27=EDGE_LOOP('',(#66,#67,#68,#69));
#28=EDGE_LOOP('',(#70));
#29=EDGE_LOOP('',(#71));
#30=EDGE_LOOP('',(#72,#73,#74,#75));
#31=EDGE_LOOP('',(#76,#77,#78,#79,#80));
#32=EDGE_LOOP('',(#81));
#33=EDGE_LOOP('',(#82));
#34=EDGE_LOOP('',(#83,#84));
#35=EDGE_LOOP('',(#85));
#36=LINE('',#164,#39);
#37=LINE('',#173,#40);
#38=LINE('',#177,#41);
#39=VECTOR('',#134,1.75);
#40=VECTOR('',#145,0.9);
#41=VECTOR('',#150,2.75);
#42=CIRCLE('',#116,1.75);
#43=CIRCLE('',#117,1.75);
#44=CIRCLE('',#119,2.75);
#45=CIRCLE('',#121,0.9);
#46=CIRCLE('',#122,0.9);
#47=CIRCLE('',#124,2.75);
#48=CIRCLE('',#125,2.75);
#49=VERTEX_POINT('',#161);
#50=VERTEX_POINT('',#163);
#51=VERTEX_POINT('',#167);
#52=VERTEX_POINT('',#170);
#53=VERTEX_POINT('',#172);
#54=VERTEX_POINT('',#176);
#55=VERTEX_POINT('',#178);
#56=EDGE_CURVE('',#49,#49,#42,.T.);
#57=EDGE_CURVE('',#49,#50,#36,.T.);
#58=EDGE_CURVE('',#50,#50,#43,.T.);
#59=EDGE_CURVE('',#51,#51,#44,.T.);
#60=EDGE_CURVE('',#52,#52,#45,.T.);
#61=EDGE_CURVE('',#52,#53,#37,.T.);
#62=EDGE_CURVE('',#53,#53,#46,.T.);
#63=EDGE_CURVE('',#51,#54,#38,.T.);
#64=EDGE_CURVE('',#54,#55,#47,.T.);
#65=EDGE_CURVE('',#55,#54,#48,.T.);
#66=ORIENTED_EDGE('',*,*,#56,.F.);
#67=ORIENTED_EDGE('',*,*,#57,.T.);
#68=ORIENTED_EDGE('',*,*,#58,.T.);
#69=ORIENTED_EDGE('',*,*,#57,.F.);
#70=ORIENTED_EDGE('',*,*,#59,.F.);
#71=ORIENTED_EDGE('',*,*,#58,.F.);
#72=ORIENTED_EDGE('',*,*,#60,.F.);
#73=ORIENTED_EDGE('',*,*,#61,.T.);
#74=ORIENTED_EDGE('',*,*,#62,.T.);
#75=ORIENTED_EDGE('',*,*,#61,.F.);
#76=ORIENTED_EDGE('',*,*,#59,.T.);
#77=ORIENTED_EDGE('',*,*,#63,.T.);
#78=ORIENTED_EDGE('',*,*,#64,.T.);
#79=ORIENTED_EDGE('',*,*,#65,.T.);
#80=ORIENTED_EDGE('',*,*,#63,.F.);
#81=ORIENTED_EDGE('',*,*,#56,.T.);
#82=ORIENTED_EDGE('',*,*,#60,.T.);
#83=ORIENTED_EDGE('',*,*,#65,.F.);
#84=ORIENTED_EDGE('',*,*,#64,.F.);
#85=ORIENTED_EDGE('',*,*,#62,.F.);
#86=CYLINDRICAL_SURFACE('',#115,1.75);
#87=CYLINDRICAL_SURFACE('',#120,0.9);
#88=CYLINDRICAL_SURFACE('',#123,2.75);
#89=ADVANCED_FACE('',(#21),#86,.T.);
#90=ADVANCED_FACE('',(#22,#15),#18,.T.);
#91=ADVANCED_FACE('',(#23),#87,.F.);
#92=ADVANCED_FACE('',(#24),#88,.T.);
#93=ADVANCED_FACE('',(#25,#16),#19,.T.);
#94=ADVANCED_FACE('',(#26,#17),#20,.F.);
#95=CLOSED_SHELL('',(#89,#90,#91,#92,#93,#94));
#96=DERIVED_UNIT_ELEMENT(#98,1.);
#97=DERIVED_UNIT_ELEMENT(#188,3.);
#98=(
MASS_UNIT()
NAMED_UNIT(*)
SI_UNIT($,.GRAM.)
);
#99=DERIVED_UNIT((#96,#97));
#100=MEASURE_REPRESENTATION_ITEM('density measure',
POSITIVE_RATIO_MEASURE(1.),#99);
#101=PROPERTY_DEFINITION_REPRESENTATION(#106,#103);
#102=PROPERTY_DEFINITION_REPRESENTATION(#107,#104);
#103=REPRESENTATION('material name',(#105),#185);
#104=REPRESENTATION('density',(#100),#185);
#105=DESCRIPTIVE_REPRESENTATION_ITEM('Generic','Generic');
#106=PROPERTY_DEFINITION('material property','material name',#195);
#107=PROPERTY_DEFINITION('material property','density of part',#195);
#108=DATE_TIME_ROLE('creation_date');
#109=APPLIED_DATE_AND_TIME_ASSIGNMENT(#110,#108,(#195));
#110=DATE_AND_TIME(#111,#112);
#111=CALENDAR_DATE(2020,9,4);
#112=LOCAL_TIME(13,22,31.,#113);
#113=COORDINATED_UNIVERSAL_TIME_OFFSET(0,0,.BEHIND.);
#114=AXIS2_PLACEMENT_3D('placement',#159,#128,#129);
#115=AXIS2_PLACEMENT_3D('',#160,#130,#131);
#116=AXIS2_PLACEMENT_3D('',#162,#132,#133);
#117=AXIS2_PLACEMENT_3D('',#165,#135,#136);
#118=AXIS2_PLACEMENT_3D('',#166,#137,#138);
#119=AXIS2_PLACEMENT_3D('',#168,#139,#140);
#120=AXIS2_PLACEMENT_3D('',#169,#141,#142);
#121=AXIS2_PLACEMENT_3D('',#171,#143,#144);
#122=AXIS2_PLACEMENT_3D('',#174,#146,#147);
#123=AXIS2_PLACEMENT_3D('',#175,#148,#149);
#124=AXIS2_PLACEMENT_3D('',#179,#151,#152);
#125=AXIS2_PLACEMENT_3D('',#180,#153,#154);
#126=AXIS2_PLACEMENT_3D('',#181,#155,#156);
#127=AXIS2_PLACEMENT_3D('',#182,#157,#158);
#128=DIRECTION('axis',(0.,0.,1.));
#129=DIRECTION('refdir',(1.,0.,0.));
#130=DIRECTION('center_axis',(0.,-1.,0.));
#131=DIRECTION('ref_axis',(-1.,0.,0.));
#132=DIRECTION('center_axis',(0.,1.,0.));
#133=DIRECTION('ref_axis',(-1.,0.,0.));
#134=DIRECTION('',(0.,-1.,0.));
#135=DIRECTION('center_axis',(0.,1.,0.));
#136=DIRECTION('ref_axis',(-1.,0.,0.));
#137=DIRECTION('center_axis',(0.,1.,0.));
#138=DIRECTION('ref_axis',(0.,0.,1.));
#139=DIRECTION('center_axis',(0.,-1.,0.));
#140=DIRECTION('ref_axis',(-1.,0.,0.));
#141=DIRECTION('center_axis',(0.,1.,0.));
#142=DIRECTION('ref_axis',(1.,0.,0.));
#143=DIRECTION('center_axis',(0.,-1.,0.));
#144=DIRECTION('ref_axis',(1.,0.,0.));
#145=DIRECTION('',(0.,-1.,0.));
#146=DIRECTION('center_axis',(0.,-1.,0.));
#147=DIRECTION('ref_axis',(1.,0.,0.));
#148=DIRECTION('center_axis',(0.,1.,0.));
#149=DIRECTION('ref_axis',(-1.,0.,0.));
#150=DIRECTION('',(0.,-1.,0.));
#151=DIRECTION('center_axis',(0.,1.,0.));
#152=DIRECTION('ref_axis',(-1.,0.,0.));
#153=DIRECTION('center_axis',(0.,1.,0.));
#154=DIRECTION('ref_axis',(-1.,0.,0.));
#155=DIRECTION('center_axis',(0.,1.,0.));
#156=DIRECTION('ref_axis',(0.,0.,1.));
#157=DIRECTION('center_axis',(0.,1.,0.));
#158=DIRECTION('ref_axis',(0.,0.,1.));
#159=CARTESIAN_POINT('',(0.,0.,0.));
#160=CARTESIAN_POINT('Origin',(0.,4.8,0.));
#161=CARTESIAN_POINT('',(1.75,4.8,-2.14313189850787E-16));
#162=CARTESIAN_POINT('Origin',(0.,4.8,0.));
#163=CARTESIAN_POINT('',(1.75,2.3,-2.14313189850787E-16));
#164=CARTESIAN_POINT('',(1.75,4.8,2.14313189850787E-16));
#165=CARTESIAN_POINT('Origin',(0.,2.3,0.));
#166=CARTESIAN_POINT('Origin',(0.,2.3,0.));
#167=CARTESIAN_POINT('',(2.75,2.3,0.));
#168=CARTESIAN_POINT('Origin',(0.,2.3,0.));
#169=CARTESIAN_POINT('Origin',(0.,0.,0.));
#170=CARTESIAN_POINT('',(-0.9,4.8,1.10218211923262E-16));
#171=CARTESIAN_POINT('Origin',(0.,4.8,0.));
#172=CARTESIAN_POINT('',(-0.9,0.,1.10218211923262E-16));
#173=CARTESIAN_POINT('',(-0.9,0.,1.10218211923262E-16));
#174=CARTESIAN_POINT('Origin',(0.,0.,0.));
#175=CARTESIAN_POINT('Origin',(0.,0.,0.));
#176=CARTESIAN_POINT('',(2.75,0.,-3.36777869765522E-16));
#177=CARTESIAN_POINT('',(2.75,0.,-3.36777869765522E-16));
#178=CARTESIAN_POINT('',(-2.75,0.,0.));
#179=CARTESIAN_POINT('Origin',(0.,0.,0.));
#180=CARTESIAN_POINT('Origin',(0.,0.,0.));
#181=CARTESIAN_POINT('Origin',(0.,4.8,0.));
#182=CARTESIAN_POINT('Origin',(0.,0.,0.));
#183=UNCERTAINTY_MEASURE_WITH_UNIT(LENGTH_MEASURE(0.01),#187,
'DISTANCE_ACCURACY_VALUE',
'Maximum model space distance between geometric entities at asserted c
onnectivities');
#184=UNCERTAINTY_MEASURE_WITH_UNIT(LENGTH_MEASURE(0.01),#187,
'DISTANCE_ACCURACY_VALUE',
'Maximum model space distance between geometric entities at asserted c
onnectivities');
#185=(
GEOMETRIC_REPRESENTATION_CONTEXT(3)
GLOBAL_UNCERTAINTY_ASSIGNED_CONTEXT((#183))
GLOBAL_UNIT_ASSIGNED_CONTEXT((#187,#189,#190))
REPRESENTATION_CONTEXT('','3D')
);
#186=(
GEOMETRIC_REPRESENTATION_CONTEXT(3)
GLOBAL_UNCERTAINTY_ASSIGNED_CONTEXT((#184))
GLOBAL_UNIT_ASSIGNED_CONTEXT((#187,#189,#190))
REPRESENTATION_CONTEXT('','3D')
);
#187=(
LENGTH_UNIT()
NAMED_UNIT(*)
SI_UNIT(.MILLI.,.METRE.)
);
#188=(
LENGTH_UNIT()
NAMED_UNIT(*)
SI_UNIT(.CENTI.,.METRE.)
);
#189=(
NAMED_UNIT(*)
PLANE_ANGLE_UNIT()
SI_UNIT($,.RADIAN.)
);
#190=(
NAMED_UNIT(*)
SI_UNIT($,.STERADIAN.)
SOLID_ANGLE_UNIT()
);
#191=SHAPE_DEFINITION_REPRESENTATION(#192,#193);
#192=PRODUCT_DEFINITION_SHAPE('',$,#195);
#193=SHAPE_REPRESENTATION('',(#114),#185);
#194=PRODUCT_DEFINITION_CONTEXT('part definition',#199,'design');
#195=PRODUCT_DEFINITION('Cercamic_busher_M','Cercamic_bush_M',#196,#194);
#196=PRODUCT_DEFINITION_FORMATION('',$,#201);
#197=PRODUCT_RELATED_PRODUCT_CATEGORY('Cercamic_bush_M',
'Cercamic_bush_M',(#201));
#198=APPLICATION_PROTOCOL_DEFINITION('international standard',
'automotive_design',2009,#199);
#199=APPLICATION_CONTEXT(
'Core Data for Automotive Mechanical Design Process');
#200=PRODUCT_CONTEXT('part definition',#199,'mechanical');
#201=PRODUCT('Cercamic_busher_M','Cercamic_bush_M',$,(#200));
#202=PRESENTATION_STYLE_ASSIGNMENT((#203));
#203=SURFACE_STYLE_USAGE(.BOTH.,#206);
#204=SURFACE_STYLE_RENDERING_WITH_PROPERTIES($,#210,(#205));
#205=SURFACE_STYLE_TRANSPARENT(0.);
#206=SURFACE_SIDE_STYLE('',(#207,#204));
#207=SURFACE_STYLE_FILL_AREA(#208);
#208=FILL_AREA_STYLE('',(#209));
#209=FILL_AREA_STYLE_COLOUR('',#210);
#210=COLOUR_RGB('',0.96078431372549,0.96078431372549,0.96078431372549);
ENDSEC;
END-ISO-10303-21;
