ISO-10303-21;
HEADER;
FILE_DESCRIPTION(('CATIA V5 STEP Exchange'),'2;1');

FILE_NAME('C:\\Users\\alexandre\\Documents\\03-CATIA\\sabre-laser\\v3\\liasse-intero\\sabre-v1-1.stp','2020-04-01T21:05:30+00:00',('none'),('none'),'CATIA Version 5 Release 20 GA (IN-10)','CATIA V5 STEP AP203','none');

FILE_SCHEMA(('CONFIG_CONTROL_DESIGN'));

ENDSEC;
/* file written by CATIA V5R20 */
DATA;
#5=PRODUCT('sabre-v1-1','','',(#2)) ;
#1=APPLICATION_CONTEXT('configuration controlled 3D design of mechanical parts and assemblies') ;
#14=PRODUCT_DEFINITION('',' ',#6,#3) ;
#16=SECURITY_CLASSIFICATION(' ',' ',#15) ;
#15=SECURITY_CLASSIFICATION_LEVEL('unclassified') ;
#47=CARTESIAN_POINT(' ',(0.,0.,0.)) ;
#52=CARTESIAN_POINT('Axis2P3D Location',(0.,-2.22044604925E-016,14.)) ;
#57=CARTESIAN_POINT('Axis2P3D Location',(0.,-2.22044604925E-016,14.)) ;
#61=CARTESIAN_POINT('Vertex',(-12.2137553051,6.67240493352,14.)) ;
#63=CARTESIAN_POINT('Vertex',(12.2137553051,-6.67240493352,14.)) ;
#66=CARTESIAN_POINT('Axis2P3D Location',(0.,-2.22044604925E-016,14.)) ;
#75=CARTESIAN_POINT('Axis2P3D Location',(3.5527136788E-015,-2.22044604925E-016,14.)) ;
#79=CARTESIAN_POINT('Vertex',(5.75310646325,10.5309907427,14.)) ;
#81=CARTESIAN_POINT('Vertex',(-5.75310646325,-10.5309907427,14.)) ;
#84=CARTESIAN_POINT('Axis2P3D Location',(-3.5527136788E-015,-1.55431223448E-015,14.)) ;
#94=CARTESIAN_POINT('Axis2P3D Location',(0.,8.01994598866E-016,2.5)) ;
#99=CARTESIAN_POINT('Line Origine',(-5.75310646325,-10.5309907427,16.5)) ;
#103=CARTESIAN_POINT('Vertex',(-5.75310646325,-10.5309907427,5.)) ;
#106=CARTESIAN_POINT('Axis2P3D Location',(0.,5.2443884271E-016,5.)) ;
#110=CARTESIAN_POINT('Vertex',(5.75310646325,10.5309907427,5.)) ;
#113=CARTESIAN_POINT('Line Origine',(5.75310646325,10.5309907427,16.5)) ;
#125=CARTESIAN_POINT('Axis2P3D Location',(0.,5.2443884271E-016,5.)) ;
#137=CARTESIAN_POINT('Axis2P3D Location',(0.,8.01994598866E-016,2.5)) ;
#142=CARTESIAN_POINT('Line Origine',(8.38994692557,15.3576948331,14.)) ;
#146=CARTESIAN_POINT('Vertex',(8.38994692557,15.3576948331,28.)) ;
#148=CARTESIAN_POINT('Vertex',(8.38994692557,15.3576948331,3.48140348029E-015)) ;
#151=CARTESIAN_POINT('Axis2P3D Location',(0.,1.07955035502E-015,2.6645352591E-015)) ;
#155=CARTESIAN_POINT('Vertex',(-8.38994692557,-15.3576948331,7.13101985149E-017)) ;
#158=CARTESIAN_POINT('Line Origine',(-8.38994692557,-15.3576948331,14.)) ;
#162=CARTESIAN_POINT('Vertex',(-8.38994692557,-15.3576948331,28.)) ;
#165=CARTESIAN_POINT('Axis2P3D Location',(0.,-2.02907411393E-015,28.)) ;
#177=CARTESIAN_POINT('Axis2P3D Location',(0.,1.07955035502E-015,2.6645352591E-015)) ;
#182=CARTESIAN_POINT('Axis2P3D Location',(0.,-2.02907411393E-015,28.)) ;
#194=CARTESIAN_POINT('Axis2P3D Location',(0.,-17.5,28.)) ;
#203=CARTESIAN_POINT('Axis2P3D Location',(2.55351295664E-015,-3.5527136788E-015,28.)) ;
#207=CARTESIAN_POINT('Vertex',(12.9158213546,-7.05594536441,28.)) ;
#209=CARTESIAN_POINT('Vertex',(-12.9158212314,7.05594558988,28.)) ;
#212=CARTESIAN_POINT('Axis2P3D Location',(1.84289049834E-015,-3.5527136788E-015,28.)) ;
#222=CARTESIAN_POINT('Axis2P3D Location',(0.,-1.76525460915E-015,27.9)) ;
#227=CARTESIAN_POINT('Axis2P3D Location',(0.,-1.68753899743E-015,27.2)) ;
#231=CARTESIAN_POINT('Vertex',(-12.2137553051,6.67240493352,27.2)) ;
#233=CARTESIAN_POINT('Vertex',(12.2137553051,-6.67240493352,27.2)) ;
#236=CARTESIAN_POINT('Line Origine',(-12.2137553051,6.67240493352,21.1550001907)) ;
#241=CARTESIAN_POINT('Line Origine',(12.2137553051,-6.67240493352,21.1550001907)) ;
#253=CARTESIAN_POINT('Axis2P3D Location',(0.,-1.68753899743E-015,27.2)) ;
#265=CARTESIAN_POINT('Axis2P3D Location',(7.13082370929E-014,0.,13.2825)) ;
#270=CARTESIAN_POINT('Line Origine',(12.5647883299,-6.86417514897,27.6)) ;
#275=CARTESIAN_POINT('Line Origine',(-12.5647883299,6.86417514897,27.6)) ;
#287=CARTESIAN_POINT('Axis2P3D Location',(-3.26794147298E-014,3.09030578904E-014,13.2825)) ;
#299=CARTESIAN_POINT('Axis2P3D Location',(0.,0.,0.)) ;
#308=CARTESIAN_POINT('Axis2P3D Location',(0.,0.,0.)) ;
#312=CARTESIAN_POINT('Vertex',(4.3,0.,0.)) ;
#314=CARTESIAN_POINT('Vertex',(-4.3,-5.26580732144E-016,-5.8462205315E-032)) ;
#317=CARTESIAN_POINT('Axis2P3D Location',(0.,0.,0.)) ;
#327=CARTESIAN_POINT('Axis2P3D Location',(0.,-1.11022302463E-015,10.)) ;
#332=CARTESIAN_POINT('Axis2P3D Location',(0.,-2.22044604925E-016,2.)) ;
#336=CARTESIAN_POINT('Vertex',(4.3,-2.22044604925E-016,2.)) ;
#338=CARTESIAN_POINT('Vertex',(-4.3,-7.48625337069E-016,2.)) ;
#341=CARTESIAN_POINT('Line Origine',(4.3,-1.11022302463E-015,10.)) ;
#346=CARTESIAN_POINT('Line Origine',(-4.3,-1.63680375677E-015,10.)) ;
#358=CARTESIAN_POINT('Axis2P3D Location',(0.,-2.22044604925E-016,2.)) ;
#370=CARTESIAN_POINT('Axis2P3D Location',(0.,-12.,5.)) ;
#379=CARTESIAN_POINT('Axis2P3D Location',(0.,-1.7763568394E-015,5.)) ;
#383=CARTESIAN_POINT('Vertex',(-6.5,3.14228894641E-016,5.)) ;
#385=CARTESIAN_POINT('Vertex',(6.5,-1.7763568394E-015,5.)) ;
#388=CARTESIAN_POINT('Axis2P3D Location',(0.,-1.7763568394E-015,5.)) ;
#398=CARTESIAN_POINT('Axis2P3D Location',(0.,-1.60982338571E-015,3.5)) ;
#403=CARTESIAN_POINT('Axis2P3D Location',(0.,-1.44328993201E-015,2.)) ;
#407=CARTESIAN_POINT('Vertex',(6.5,-1.44328993201E-015,2.)) ;
#409=CARTESIAN_POINT('Vertex',(-6.5,6.47295802028E-016,2.)) ;
#412=CARTESIAN_POINT('Line Origine',(-6.5,4.80762348334E-016,3.5)) ;
#417=CARTESIAN_POINT('Line Origine',(6.5,-1.60982338571E-015,3.5)) ;
#429=CARTESIAN_POINT('Axis2P3D Location',(0.,-1.44328993201E-015,2.)) ;
#441=CARTESIAN_POINT('Axis2P3D Location',(0.,-12.,2.)) ;
#53=DIRECTION('Axis2P3D Direction',(0.,1.11022302463E-016,-1.)) ;
#54=DIRECTION('Axis2P3D XDirection',(1.,0.,0.)) ;
#58=DIRECTION('Axis2P3D Direction',(0.,1.11022302463E-016,-1.)) ;
#67=DIRECTION('Axis2P3D Direction',(0.,1.11022302463E-016,-1.)) ;
#76=DIRECTION('Axis2P3D Direction',(0.,1.11022302463E-016,-1.)) ;
#85=DIRECTION('Axis2P3D Direction',(0.,1.11022302463E-016,-1.)) ;
#95=DIRECTION('Axis2P3D Direction',(0.,1.11022302463E-016,-1.)) ;
#96=DIRECTION('Axis2P3D XDirection',(-0.479425538604,-0.87758256189,-9.7431236622E-017)) ;
#100=DIRECTION('Vector Direction',(0.,7.72329060609E-017,-1.)) ;
#107=DIRECTION('Axis2P3D Direction',(0.,1.11022302463E-016,-1.)) ;
#114=DIRECTION('Vector Direction',(0.,7.72329060609E-017,-1.)) ;
#126=DIRECTION('Axis2P3D Direction',(0.,1.11022302463E-016,-1.)) ;
#138=DIRECTION('Axis2P3D Direction',(0.,1.11022302463E-016,-1.)) ;
#139=DIRECTION('Axis2P3D XDirection',(-0.479425538604,-0.87758256189,-9.7431236622E-017)) ;
#143=DIRECTION('Vector Direction',(0.,1.26882631386E-016,-1.)) ;
#152=DIRECTION('Axis2P3D Direction',(0.,1.11022302463E-016,-1.)) ;
#159=DIRECTION('Vector Direction',(0.,1.26882631386E-016,-1.)) ;
#166=DIRECTION('Axis2P3D Direction',(0.,1.11022302463E-016,-1.)) ;
#178=DIRECTION('Axis2P3D Direction',(0.,1.11022302463E-016,-1.)) ;
#183=DIRECTION('Axis2P3D Direction',(0.,1.11022302463E-016,-1.)) ;
#195=DIRECTION('Axis2P3D Direction',(0.,1.11022302463E-016,-1.)) ;
#196=DIRECTION('Axis2P3D XDirection',(1.,0.,0.)) ;
#204=DIRECTION('Axis2P3D Direction',(0.,1.11022302463E-016,-1.)) ;
#213=DIRECTION('Axis2P3D Direction',(0.,1.11022302463E-016,-1.)) ;
#223=DIRECTION('Axis2P3D Direction',(0.,1.11022302463E-016,-1.)) ;
#224=DIRECTION('Axis2P3D XDirection',(0.87758256189,-0.479425538604,-5.32269271552E-017)) ;
#228=DIRECTION('Axis2P3D Direction',(0.,1.11022302463E-016,-1.)) ;
#237=DIRECTION('Vector Direction',(0.,1.24133947732E-016,-1.)) ;
#242=DIRECTION('Vector Direction',(0.,1.24133947732E-016,-1.)) ;
#254=DIRECTION('Axis2P3D Direction',(0.,1.11022302463E-016,-1.)) ;
#266=DIRECTION('Axis2P3D Direction',(-4.99600361081E-015,0.,1.)) ;
#267=DIRECTION('Axis2P3D XDirection',(0.87758256189,-0.479425538604,4.34639375269E-015)) ;
#271=DIRECTION('Vector Direction',(0.620544580564,-0.339005049421,0.707106781187)) ;
#276=DIRECTION('Vector Direction',(-0.620544580564,0.339005049421,0.707106781187)) ;
#288=DIRECTION('Axis2P3D Direction',(2.22044604925E-015,-2.22044604925E-015,1.)) ;
#289=DIRECTION('Axis2P3D XDirection',(-0.87758256189,0.479425538604,3.02930473672E-015)) ;
#300=DIRECTION('Axis2P3D Direction',(0.,1.11022302463E-016,-1.)) ;
#301=DIRECTION('Axis2P3D XDirection',(1.,0.,0.)) ;
#309=DIRECTION('Axis2P3D Direction',(0.,1.11022302463E-016,-1.)) ;
#318=DIRECTION('Axis2P3D Direction',(0.,1.11022302463E-016,-1.)) ;
#328=DIRECTION('Axis2P3D Direction',(0.,1.11022302463E-016,-1.)) ;
#329=DIRECTION('Axis2P3D XDirection',(1.,0.,0.)) ;
#333=DIRECTION('Axis2P3D Direction',(0.,1.11022302463E-016,-1.)) ;
#342=DIRECTION('Vector Direction',(0.,1.11022302463E-016,-1.)) ;
#347=DIRECTION('Vector Direction',(0.,1.11022302463E-016,-1.)) ;
#359=DIRECTION('Axis2P3D Direction',(0.,1.11022302463E-016,-1.)) ;
#371=DIRECTION('Axis2P3D Direction',(0.,1.11022302463E-016,-1.)) ;
#372=DIRECTION('Axis2P3D XDirection',(1.,0.,0.)) ;
#380=DIRECTION('Axis2P3D Direction',(0.,1.11022302463E-016,-1.)) ;
#389=DIRECTION('Axis2P3D Direction',(0.,1.11022302463E-016,-1.)) ;
#399=DIRECTION('Axis2P3D Direction',(0.,1.11022302463E-016,-1.)) ;
#400=DIRECTION('Axis2P3D XDirection',(1.,0.,0.)) ;
#404=DIRECTION('Axis2P3D Direction',(0.,1.11022302463E-016,-1.)) ;
#413=DIRECTION('Vector Direction',(0.,1.11022302463E-016,-1.)) ;
#418=DIRECTION('Vector Direction',(0.,1.11022302463E-016,-1.)) ;
#430=DIRECTION('Axis2P3D Direction',(0.,1.11022302463E-016,-1.)) ;
#442=DIRECTION('Axis2P3D Direction',(0.,1.11022302463E-016,-1.)) ;
#443=DIRECTION('Axis2P3D XDirection',(1.,0.,0.)) ;
#48=AXIS2_PLACEMENT_3D(' ',#47,$,$) ;
#55=AXIS2_PLACEMENT_3D('Plane Axis2P3D',#52,#53,#54) ;
#59=AXIS2_PLACEMENT_3D('Circle Axis2P3D',#57,#58,$) ;
#68=AXIS2_PLACEMENT_3D('Circle Axis2P3D',#66,#67,$) ;
#77=AXIS2_PLACEMENT_3D('Circle Axis2P3D',#75,#76,$) ;
#86=AXIS2_PLACEMENT_3D('Circle Axis2P3D',#84,#85,$) ;
#97=AXIS2_PLACEMENT_3D('Cylinder Axis2P3D',#94,#95,#96) ;
#108=AXIS2_PLACEMENT_3D('Circle Axis2P3D',#106,#107,$) ;
#127=AXIS2_PLACEMENT_3D('Circle Axis2P3D',#125,#126,$) ;
#140=AXIS2_PLACEMENT_3D('Cylinder Axis2P3D',#137,#138,#139) ;
#153=AXIS2_PLACEMENT_3D('Circle Axis2P3D',#151,#152,$) ;
#167=AXIS2_PLACEMENT_3D('Circle Axis2P3D',#165,#166,$) ;
#179=AXIS2_PLACEMENT_3D('Circle Axis2P3D',#177,#178,$) ;
#184=AXIS2_PLACEMENT_3D('Circle Axis2P3D',#182,#183,$) ;
#197=AXIS2_PLACEMENT_3D('Plane Axis2P3D',#194,#195,#196) ;
#205=AXIS2_PLACEMENT_3D('Circle Axis2P3D',#203,#204,$) ;
#214=AXIS2_PLACEMENT_3D('Circle Axis2P3D',#212,#213,$) ;
#225=AXIS2_PLACEMENT_3D('Cylinder Axis2P3D',#222,#223,#224) ;
#229=AXIS2_PLACEMENT_3D('Circle Axis2P3D',#227,#228,$) ;
#255=AXIS2_PLACEMENT_3D('Circle Axis2P3D',#253,#254,$) ;
#268=AXIS2_PLACEMENT_3D('Cone Axis2P3D',#265,#266,#267) ;
#290=AXIS2_PLACEMENT_3D('Cone Axis2P3D',#287,#288,#289) ;
#302=AXIS2_PLACEMENT_3D('Plane Axis2P3D',#299,#300,#301) ;
#310=AXIS2_PLACEMENT_3D('Circle Axis2P3D',#308,#309,$) ;
#319=AXIS2_PLACEMENT_3D('Circle Axis2P3D',#317,#318,$) ;
#330=AXIS2_PLACEMENT_3D('Cylinder Axis2P3D',#327,#328,#329) ;
#334=AXIS2_PLACEMENT_3D('Circle Axis2P3D',#332,#333,$) ;
#360=AXIS2_PLACEMENT_3D('Circle Axis2P3D',#358,#359,$) ;
#373=AXIS2_PLACEMENT_3D('Plane Axis2P3D',#370,#371,#372) ;
#381=AXIS2_PLACEMENT_3D('Circle Axis2P3D',#379,#380,$) ;
#390=AXIS2_PLACEMENT_3D('Circle Axis2P3D',#388,#389,$) ;
#401=AXIS2_PLACEMENT_3D('Cylinder Axis2P3D',#398,#399,#400) ;
#405=AXIS2_PLACEMENT_3D('Circle Axis2P3D',#403,#404,$) ;
#431=AXIS2_PLACEMENT_3D('Circle Axis2P3D',#429,#430,$) ;
#444=AXIS2_PLACEMENT_3D('Plane Axis2P3D',#441,#442,#443) ;
#40=PRODUCT_DEFINITION_SHAPE(' ',' ',#14) ;
#31=APPROVAL_PERSON_ORGANIZATION(#25,#21,#19) ;
#25=PERSON_AND_ORGANIZATION(#22,#23) ;
#22=PERSON(' ',' ',' ',$,$,$) ;
#23=ORGANIZATION(' ',' ',' ') ;
#21=APPROVAL(#20,' ') ;
#20=APPROVAL_STATUS('not_yet_approved') ;
#19=APPROVAL_ROLE('APPROVER') ;
#13=DATE_AND_TIME(#11,#12) ;
#12=LOCAL_TIME(23,5,30.,#10) ;
#10=COORDINATED_UNIVERSAL_TIME_OFFSET(0,0,.AHEAD.) ;
#72=ORIENTED_EDGE('',*,*,#65,.F.) ;
#73=ORIENTED_EDGE('',*,*,#70,.F.) ;
#90=ORIENTED_EDGE('',*,*,#83,.T.) ;
#91=ORIENTED_EDGE('',*,*,#88,.T.) ;
#119=ORIENTED_EDGE('',*,*,#88,.F.) ;
#120=ORIENTED_EDGE('',*,*,#105,.F.) ;
#121=ORIENTED_EDGE('',*,*,#112,.T.) ;
#122=ORIENTED_EDGE('',*,*,#117,.T.) ;
#131=ORIENTED_EDGE('',*,*,#83,.F.) ;
#132=ORIENTED_EDGE('',*,*,#117,.F.) ;
#133=ORIENTED_EDGE('',*,*,#129,.T.) ;
#134=ORIENTED_EDGE('',*,*,#105,.T.) ;
#171=ORIENTED_EDGE('',*,*,#150,.T.) ;
#172=ORIENTED_EDGE('',*,*,#157,.F.) ;
#173=ORIENTED_EDGE('',*,*,#164,.F.) ;
#174=ORIENTED_EDGE('',*,*,#169,.T.) ;
#188=ORIENTED_EDGE('',*,*,#164,.T.) ;
#189=ORIENTED_EDGE('',*,*,#181,.F.) ;
#190=ORIENTED_EDGE('',*,*,#150,.F.) ;
#191=ORIENTED_EDGE('',*,*,#186,.T.) ;
#200=ORIENTED_EDGE('',*,*,#169,.F.) ;
#201=ORIENTED_EDGE('',*,*,#186,.F.) ;
#218=ORIENTED_EDGE('',*,*,#211,.T.) ;
#219=ORIENTED_EDGE('',*,*,#216,.T.) ;
#247=ORIENTED_EDGE('',*,*,#235,.F.) ;
#248=ORIENTED_EDGE('',*,*,#240,.F.) ;
#249=ORIENTED_EDGE('',*,*,#65,.T.) ;
#250=ORIENTED_EDGE('',*,*,#245,.T.) ;
#259=ORIENTED_EDGE('',*,*,#257,.F.) ;
#260=ORIENTED_EDGE('',*,*,#245,.F.) ;
#261=ORIENTED_EDGE('',*,*,#70,.T.) ;
#262=ORIENTED_EDGE('',*,*,#240,.T.) ;
#281=ORIENTED_EDGE('',*,*,#274,.T.) ;
#282=ORIENTED_EDGE('',*,*,#257,.T.) ;
#283=ORIENTED_EDGE('',*,*,#279,.F.) ;
#284=ORIENTED_EDGE('',*,*,#211,.F.) ;
#293=ORIENTED_EDGE('',*,*,#279,.T.) ;
#294=ORIENTED_EDGE('',*,*,#235,.T.) ;
#295=ORIENTED_EDGE('',*,*,#274,.F.) ;
#296=ORIENTED_EDGE('',*,*,#216,.F.) ;
#305=ORIENTED_EDGE('',*,*,#181,.T.) ;
#306=ORIENTED_EDGE('',*,*,#157,.T.) ;
#323=ORIENTED_EDGE('',*,*,#316,.F.) ;
#324=ORIENTED_EDGE('',*,*,#321,.F.) ;
#352=ORIENTED_EDGE('',*,*,#340,.F.) ;
#353=ORIENTED_EDGE('',*,*,#345,.F.) ;
#354=ORIENTED_EDGE('',*,*,#316,.T.) ;
#355=ORIENTED_EDGE('',*,*,#350,.T.) ;
#364=ORIENTED_EDGE('',*,*,#362,.F.) ;
#365=ORIENTED_EDGE('',*,*,#350,.F.) ;
#366=ORIENTED_EDGE('',*,*,#321,.T.) ;
#367=ORIENTED_EDGE('',*,*,#345,.T.) ;
#376=ORIENTED_EDGE('',*,*,#129,.F.) ;
#377=ORIENTED_EDGE('',*,*,#112,.F.) ;
#394=ORIENTED_EDGE('',*,*,#387,.T.) ;
#395=ORIENTED_EDGE('',*,*,#392,.T.) ;
#423=ORIENTED_EDGE('',*,*,#411,.T.) ;
#424=ORIENTED_EDGE('',*,*,#416,.F.) ;
#425=ORIENTED_EDGE('',*,*,#392,.F.) ;
#426=ORIENTED_EDGE('',*,*,#421,.T.) ;
#435=ORIENTED_EDGE('',*,*,#433,.T.) ;
#436=ORIENTED_EDGE('',*,*,#421,.F.) ;
#437=ORIENTED_EDGE('',*,*,#387,.F.) ;
#438=ORIENTED_EDGE('',*,*,#416,.T.) ;
#447=ORIENTED_EDGE('',*,*,#433,.F.) ;
#448=ORIENTED_EDGE('',*,*,#411,.F.) ;
#451=ORIENTED_EDGE('',*,*,#340,.T.) ;
#452=ORIENTED_EDGE('',*,*,#362,.T.) ;
#92=FACE_BOUND('',#89,.T.) ;
#220=FACE_BOUND('',#217,.T.) ;
#325=FACE_BOUND('',#322,.T.) ;
#396=FACE_BOUND('',#393,.T.) ;
#453=FACE_BOUND('',#450,.T.) ;
#51=CLOSED_SHELL('Closed Shell',(#93,#124,#136,#176,#193,#221,#252,#264,#286,#298,#326,#357,#369,#397,#428,#440,#454)) ;
#101=VECTOR('Line Direction',#100,1.) ;
#115=VECTOR('Line Direction',#114,1.) ;
#144=VECTOR('Line Direction',#143,1.) ;
#160=VECTOR('Line Direction',#159,1.) ;
#238=VECTOR('Line Direction',#237,1.) ;
#243=VECTOR('Line Direction',#242,1.) ;
#272=VECTOR('Line Direction',#271,1.) ;
#277=VECTOR('Line Direction',#276,1.) ;
#343=VECTOR('Line Direction',#342,1.) ;
#348=VECTOR('Line Direction',#347,1.) ;
#414=VECTOR('Line Direction',#413,1.) ;
#419=VECTOR('Line Direction',#418,1.) ;
#456=ADVANCED_BREP_SHAPE_REPRESENTATION('NONE',(#455),#46) ;
#49=SHAPE_REPRESENTATION(' ',(#48),#46) ;
#93=ADVANCED_FACE('Corps principal',(#74,#92),#56,.F.) ;
#124=ADVANCED_FACE('Corps principal',(#123),#98,.F.) ;
#136=ADVANCED_FACE('Corps principal',(#135),#98,.F.) ;
#176=ADVANCED_FACE('Corps principal',(#175),#141,.T.) ;
#193=ADVANCED_FACE('Corps principal',(#192),#141,.T.) ;
#221=ADVANCED_FACE('Corps principal',(#202,#220),#198,.F.) ;
#252=ADVANCED_FACE('Corps principal',(#251),#226,.F.) ;
#264=ADVANCED_FACE('Corps principal',(#263),#226,.F.) ;
#286=ADVANCED_FACE('Corps principal',(#285),#269,.F.) ;
#298=ADVANCED_FACE('Corps principal',(#297),#291,.F.) ;
#326=ADVANCED_FACE('Corps principal',(#307,#325),#303,.T.) ;
#357=ADVANCED_FACE('Corps principal',(#356),#331,.F.) ;
#369=ADVANCED_FACE('Corps principal',(#368),#331,.F.) ;
#397=ADVANCED_FACE('Corps principal',(#378,#396),#374,.F.) ;
#428=ADVANCED_FACE('Corps principal',(#427),#402,.F.) ;
#440=ADVANCED_FACE('Corps principal',(#439),#402,.F.) ;
#454=ADVANCED_FACE('Corps principal',(#449,#453),#445,.F.) ;
#4=APPLICATION_PROTOCOL_DEFINITION('international standard','config_control_design',1994,#1) ;
#32=APPROVAL_DATE_TIME(#13,#21) ;
#455=MANIFOLD_SOLID_BREP('Corps principal',#51) ;
#11=CALENDAR_DATE(2020,1,4) ;
#30=CC_DESIGN_APPROVAL(#21,(#16,#6,#14)) ;
#18=CC_DESIGN_DATE_AND_TIME_ASSIGNMENT(#13,#17,(#16)) ;
#29=CC_DESIGN_DATE_AND_TIME_ASSIGNMENT(#13,#28,(#14)) ;
#17=DATE_TIME_ROLE('classification_date') ;
#28=DATE_TIME_ROLE('creation_date') ;
#27=CC_DESIGN_PERSON_AND_ORGANIZATION_ASSIGNMENT(#25,#26,(#16)) ;
#33=CC_DESIGN_PERSON_AND_ORGANIZATION_ASSIGNMENT(#25,#34,(#6)) ;
#35=CC_DESIGN_PERSON_AND_ORGANIZATION_ASSIGNMENT(#25,#36,(#6,#14)) ;
#37=CC_DESIGN_PERSON_AND_ORGANIZATION_ASSIGNMENT(#25,#38,(#5)) ;
#26=PERSON_AND_ORGANIZATION_ROLE('classification_officer') ;
#34=PERSON_AND_ORGANIZATION_ROLE('design_supplier') ;
#36=PERSON_AND_ORGANIZATION_ROLE('creator') ;
#38=PERSON_AND_ORGANIZATION_ROLE('design_owner') ;
#39=CC_DESIGN_SECURITY_CLASSIFICATION(#16,(#6)) ;
#60=CIRCLE('generated circle',#59,13.9175) ;
#69=CIRCLE('generated circle',#68,13.9175) ;
#78=CIRCLE('generated circle',#77,12.) ;
#87=CIRCLE('generated circle',#86,12.) ;
#109=CIRCLE('generated circle',#108,12.) ;
#128=CIRCLE('generated circle',#127,12.) ;
#154=CIRCLE('generated circle',#153,17.5) ;
#168=CIRCLE('generated circle',#167,17.5) ;
#180=CIRCLE('generated circle',#179,17.5) ;
#185=CIRCLE('generated circle',#184,17.5) ;
#206=CIRCLE('generated circle',#205,14.7175) ;
#215=CIRCLE('generated circle',#214,14.7175) ;
#230=CIRCLE('generated circle',#229,13.9175) ;
#256=CIRCLE('generated circle',#255,13.9175) ;
#311=CIRCLE('generated circle',#310,4.3) ;
#320=CIRCLE('generated circle',#319,4.3) ;
#335=CIRCLE('generated circle',#334,4.3) ;
#361=CIRCLE('generated circle',#360,4.3) ;
#382=CIRCLE('generated circle',#381,6.5) ;
#391=CIRCLE('generated circle',#390,6.5) ;
#406=CIRCLE('generated circle',#405,6.5) ;
#432=CIRCLE('generated circle',#431,6.5) ;
#269=CONICAL_SURFACE('Cone',#268,0.,0.785398163397) ;
#291=CONICAL_SURFACE('Cone',#290,0.,0.785398163397) ;
#457=SHAPE_REPRESENTATION_RELATIONSHIP(' ',' ',#49,#456) ;
#98=CYLINDRICAL_SURFACE('generated cylinder',#97,12.) ;
#141=CYLINDRICAL_SURFACE('generated cylinder',#140,17.5) ;
#226=CYLINDRICAL_SURFACE('generated cylinder',#225,13.9175) ;
#331=CYLINDRICAL_SURFACE('generated cylinder',#330,4.3) ;
#402=CYLINDRICAL_SURFACE('generated cylinder',#401,6.5) ;
#3=DESIGN_CONTEXT(' ',#1,'design') ;
#65=EDGE_CURVE('',#62,#64,#60,.T.) ;
#70=EDGE_CURVE('',#64,#62,#69,.T.) ;
#83=EDGE_CURVE('',#80,#82,#78,.T.) ;
#88=EDGE_CURVE('',#82,#80,#87,.T.) ;
#105=EDGE_CURVE('',#104,#82,#102,.F.) ;
#112=EDGE_CURVE('',#104,#111,#109,.T.) ;
#117=EDGE_CURVE('',#111,#80,#116,.F.) ;
#129=EDGE_CURVE('',#111,#104,#128,.T.) ;
#150=EDGE_CURVE('',#147,#149,#145,.T.) ;
#157=EDGE_CURVE('',#156,#149,#154,.T.) ;
#164=EDGE_CURVE('',#163,#156,#161,.T.) ;
#169=EDGE_CURVE('',#163,#147,#168,.T.) ;
#181=EDGE_CURVE('',#149,#156,#180,.T.) ;
#186=EDGE_CURVE('',#147,#163,#185,.T.) ;
#211=EDGE_CURVE('',#208,#210,#206,.T.) ;
#216=EDGE_CURVE('',#210,#208,#215,.T.) ;
#235=EDGE_CURVE('',#232,#234,#230,.T.) ;
#240=EDGE_CURVE('',#62,#232,#239,.F.) ;
#245=EDGE_CURVE('',#64,#234,#244,.F.) ;
#257=EDGE_CURVE('',#234,#232,#256,.T.) ;
#274=EDGE_CURVE('',#208,#234,#273,.F.) ;
#279=EDGE_CURVE('',#210,#232,#278,.F.) ;
#316=EDGE_CURVE('',#313,#315,#311,.T.) ;
#321=EDGE_CURVE('',#315,#313,#320,.T.) ;
#340=EDGE_CURVE('',#337,#339,#335,.T.) ;
#345=EDGE_CURVE('',#313,#337,#344,.F.) ;
#350=EDGE_CURVE('',#315,#339,#349,.F.) ;
#362=EDGE_CURVE('',#339,#337,#361,.T.) ;
#387=EDGE_CURVE('',#384,#386,#382,.T.) ;
#392=EDGE_CURVE('',#386,#384,#391,.T.) ;
#411=EDGE_CURVE('',#408,#410,#406,.T.) ;
#416=EDGE_CURVE('',#384,#410,#415,.T.) ;
#421=EDGE_CURVE('',#386,#408,#420,.T.) ;
#433=EDGE_CURVE('',#410,#408,#432,.T.) ;
#71=EDGE_LOOP('',(#72,#73)) ;
#89=EDGE_LOOP('',(#90,#91)) ;
#118=EDGE_LOOP('',(#119,#120,#121,#122)) ;
#130=EDGE_LOOP('',(#131,#132,#133,#134)) ;
#170=EDGE_LOOP('',(#171,#172,#173,#174)) ;
#187=EDGE_LOOP('',(#188,#189,#190,#191)) ;
#199=EDGE_LOOP('',(#200,#201)) ;
#217=EDGE_LOOP('',(#218,#219)) ;
#246=EDGE_LOOP('',(#247,#248,#249,#250)) ;
#258=EDGE_LOOP('',(#259,#260,#261,#262)) ;
#280=EDGE_LOOP('',(#281,#282,#283,#284)) ;
#292=EDGE_LOOP('',(#293,#294,#295,#296)) ;
#304=EDGE_LOOP('',(#305,#306)) ;
#322=EDGE_LOOP('',(#323,#324)) ;
#351=EDGE_LOOP('',(#352,#353,#354,#355)) ;
#363=EDGE_LOOP('',(#364,#365,#366,#367)) ;
#375=EDGE_LOOP('',(#376,#377)) ;
#393=EDGE_LOOP('',(#394,#395)) ;
#422=EDGE_LOOP('',(#423,#424,#425,#426)) ;
#434=EDGE_LOOP('',(#435,#436,#437,#438)) ;
#446=EDGE_LOOP('',(#447,#448)) ;
#450=EDGE_LOOP('',(#451,#452)) ;
#74=FACE_OUTER_BOUND('',#71,.T.) ;
#123=FACE_OUTER_BOUND('',#118,.T.) ;
#135=FACE_OUTER_BOUND('',#130,.T.) ;
#175=FACE_OUTER_BOUND('',#170,.T.) ;
#192=FACE_OUTER_BOUND('',#187,.T.) ;
#202=FACE_OUTER_BOUND('',#199,.T.) ;
#251=FACE_OUTER_BOUND('',#246,.T.) ;
#263=FACE_OUTER_BOUND('',#258,.T.) ;
#285=FACE_OUTER_BOUND('',#280,.T.) ;
#297=FACE_OUTER_BOUND('',#292,.T.) ;
#307=FACE_OUTER_BOUND('',#304,.T.) ;
#356=FACE_OUTER_BOUND('',#351,.T.) ;
#368=FACE_OUTER_BOUND('',#363,.T.) ;
#378=FACE_OUTER_BOUND('',#375,.T.) ;
#427=FACE_OUTER_BOUND('',#422,.T.) ;
#439=FACE_OUTER_BOUND('',#434,.T.) ;
#449=FACE_OUTER_BOUND('',#446,.T.) ;
#45=UNCERTAINTY_MEASURE_WITH_UNIT(LENGTH_MEASURE(0.005),#41,'distance_accuracy_value','CONFUSED CURVE UNCERTAINTY') ;
#102=LINE('Line',#99,#101) ;
#116=LINE('Line',#113,#115) ;
#145=LINE('Line',#142,#144) ;
#161=LINE('Line',#158,#160) ;
#239=LINE('Line',#236,#238) ;
#244=LINE('Line',#241,#243) ;
#273=LINE('Line',#270,#272) ;
#278=LINE('Line',#275,#277) ;
#344=LINE('Line',#341,#343) ;
#349=LINE('Line',#346,#348) ;
#415=LINE('Line',#412,#414) ;
#420=LINE('Line',#417,#419) ;
#2=MECHANICAL_CONTEXT(' ',#1,'mechanical') ;
#24=PERSONAL_ADDRESS(' ',' ',' ',' ',' ',' ',' ',' ',' ',' ',' ',' ',(#22),' ') ;
#56=PLANE('Plane',#55) ;
#198=PLANE('Plane',#197) ;
#303=PLANE('Plane',#302) ;
#374=PLANE('Plane',#373) ;
#445=PLANE('Plane',#444) ;
#43=PLANE_ANGLE_MEASURE_WITH_UNIT(PLANE_ANGLE_MEASURE(0.0174532925199),#42) ;
#7=PRODUCT_CATEGORY('part',$) ;
#9=PRODUCT_CATEGORY_RELATIONSHIP(' ',' ',#7,#8) ;
#6=PRODUCT_DEFINITION_FORMATION_WITH_SPECIFIED_SOURCE('',' ',#5,.NOT_KNOWN.) ;
#8=PRODUCT_RELATED_PRODUCT_CATEGORY('detail',$,(#5)) ;
#50=SHAPE_DEFINITION_REPRESENTATION(#40,#49) ;
#62=VERTEX_POINT('',#61) ;
#64=VERTEX_POINT('',#63) ;
#80=VERTEX_POINT('',#79) ;
#82=VERTEX_POINT('',#81) ;
#104=VERTEX_POINT('',#103) ;
#111=VERTEX_POINT('',#110) ;
#147=VERTEX_POINT('',#146) ;
#149=VERTEX_POINT('',#148) ;
#156=VERTEX_POINT('',#155) ;
#163=VERTEX_POINT('',#162) ;
#208=VERTEX_POINT('',#207) ;
#210=VERTEX_POINT('',#209) ;
#232=VERTEX_POINT('',#231) ;
#234=VERTEX_POINT('',#233) ;
#313=VERTEX_POINT('',#312) ;
#315=VERTEX_POINT('',#314) ;
#337=VERTEX_POINT('',#336) ;
#339=VERTEX_POINT('',#338) ;
#384=VERTEX_POINT('',#383) ;
#386=VERTEX_POINT('',#385) ;
#408=VERTEX_POINT('',#407) ;
#410=VERTEX_POINT('',#409) ;
#41=(LENGTH_UNIT()NAMED_UNIT(*)SI_UNIT(.MILLI.,.METRE.)) ;
#42=(NAMED_UNIT(*)PLANE_ANGLE_UNIT()SI_UNIT($,.RADIAN.)) ;
#44=(NAMED_UNIT(*)SI_UNIT($,.STERADIAN.)SOLID_ANGLE_UNIT()) ;
#46=(GEOMETRIC_REPRESENTATION_CONTEXT(3)GLOBAL_UNCERTAINTY_ASSIGNED_CONTEXT((#45))GLOBAL_UNIT_ASSIGNED_CONTEXT((#41,#42,#44))REPRESENTATION_CONTEXT(' ',' ')) ;
ENDSEC;
END-ISO-10303-21;
