ISO-10303-21;
HEADER;
FILE_DESCRIPTION((''),'2;1');
FILE_NAME('286_00_32_318','2020-03-20T10:56:15',('N8994031'),(''),
'CREO PARAMETRIC BY PTC INC, 2019030','CREO PARAMETRIC BY PTC INC, 2019030','');
FILE_SCHEMA(('CONFIG_CONTROL_DESIGN'));
ENDSEC;
DATA;
#2=CARTESIAN_POINT('',(-2.3E1,0.E0,-1.E1));
#3=DIRECTION('',(0.E0,0.E0,-1.E0));
#4=DIRECTION('',(-1.E0,0.E0,0.E0));
#5=AXIS2_PLACEMENT_3D('',#2,#3,#4);
#7=CARTESIAN_POINT('',(-2.3E1,0.E0,-1.E1));
#8=DIRECTION('',(0.E0,0.E0,-1.E0));
#9=DIRECTION('',(1.E0,0.E0,0.E0));
#10=AXIS2_PLACEMENT_3D('',#7,#8,#9);
#12=CARTESIAN_POINT('',(2.3E1,0.E0,-1.E1));
#13=DIRECTION('',(0.E0,0.E0,-1.E0));
#14=DIRECTION('',(-1.E0,0.E0,0.E0));
#15=AXIS2_PLACEMENT_3D('',#12,#13,#14);
#17=CARTESIAN_POINT('',(2.3E1,0.E0,-1.E1));
#18=DIRECTION('',(0.E0,0.E0,-1.E0));
#19=DIRECTION('',(1.E0,0.E0,0.E0));
#20=AXIS2_PLACEMENT_3D('',#17,#18,#19);
#22=DIRECTION('',(-7.071067811865E-1,7.071067811865E-1,0.E0));
#23=VECTOR('',#22,5.656854249492E0);
#24=CARTESIAN_POINT('',(-2.6E1,-1.5E1,-1.E1));
#25=LINE('',#24,#23);
#26=DIRECTION('',(1.E0,0.E0,0.E0));
#27=VECTOR('',#26,5.2E1);
#28=CARTESIAN_POINT('',(-2.6E1,-1.5E1,-1.E1));
#29=LINE('',#28,#27);
#30=DIRECTION('',(-7.071067811865E-1,-7.071067811865E-1,0.E0));
#31=VECTOR('',#30,5.656854249492E0);
#32=CARTESIAN_POINT('',(3.E1,-1.1E1,-1.E1));
#33=LINE('',#32,#31);
#34=DIRECTION('',(0.E0,1.E0,0.E0));
#35=VECTOR('',#34,2.2E1);
#36=CARTESIAN_POINT('',(3.E1,-1.1E1,-1.E1));
#37=LINE('',#36,#35);
#38=DIRECTION('',(7.071067811865E-1,-7.071067811865E-1,0.E0));
#39=VECTOR('',#38,5.656854249492E0);
#40=CARTESIAN_POINT('',(2.6E1,1.5E1,-1.E1));
#41=LINE('',#40,#39);
#42=DIRECTION('',(-1.E0,0.E0,0.E0));
#43=VECTOR('',#42,5.2E1);
#44=CARTESIAN_POINT('',(2.6E1,1.5E1,-1.E1));
#45=LINE('',#44,#43);
#46=DIRECTION('',(7.071067811865E-1,7.071067811865E-1,0.E0));
#47=VECTOR('',#46,5.656854249492E0);
#48=CARTESIAN_POINT('',(-3.E1,1.1E1,-1.E1));
#49=LINE('',#48,#47);
#50=DIRECTION('',(0.E0,-1.E0,0.E0));
#51=VECTOR('',#50,2.2E1);
#52=CARTESIAN_POINT('',(-3.E1,1.1E1,-1.E1));
#53=LINE('',#52,#51);
#54=DIRECTION('',(0.E0,0.E0,-1.E0));
#55=VECTOR('',#54,2.E1);
#56=CARTESIAN_POINT('',(-2.625E1,0.E0,1.E1));
#57=LINE('',#56,#55);
#58=DIRECTION('',(0.E0,0.E0,-1.E0));
#59=VECTOR('',#58,2.E1);
#60=CARTESIAN_POINT('',(-1.975E1,0.E0,1.E1));
#61=LINE('',#60,#59);
#62=CARTESIAN_POINT('',(-2.3E1,0.E0,1.E1));
#63=DIRECTION('',(0.E0,0.E0,-1.E0));
#64=DIRECTION('',(-1.E0,0.E0,0.E0));
#65=AXIS2_PLACEMENT_3D('',#62,#63,#64);
#67=CARTESIAN_POINT('',(-2.3E1,0.E0,1.E1));
#68=DIRECTION('',(0.E0,0.E0,-1.E0));
#69=DIRECTION('',(1.E0,0.E0,0.E0));
#70=AXIS2_PLACEMENT_3D('',#67,#68,#69);
#72=CARTESIAN_POINT('',(2.3E1,0.E0,1.E1));
#73=DIRECTION('',(0.E0,0.E0,-1.E0));
#74=DIRECTION('',(-1.E0,0.E0,0.E0));
#75=AXIS2_PLACEMENT_3D('',#72,#73,#74);
#77=CARTESIAN_POINT('',(2.3E1,0.E0,1.E1));
#78=DIRECTION('',(0.E0,0.E0,-1.E0));
#79=DIRECTION('',(1.E0,0.E0,0.E0));
#80=AXIS2_PLACEMENT_3D('',#77,#78,#79);
#82=DIRECTION('',(7.071067811865E-1,-7.071067811865E-1,0.E0));
#83=VECTOR('',#82,5.656854249492E0);
#84=CARTESIAN_POINT('',(-3.E1,-1.1E1,1.E1));
#85=LINE('',#84,#83);
#86=DIRECTION('',(0.E0,-1.E0,0.E0));
#87=VECTOR('',#86,2.2E1);
#88=CARTESIAN_POINT('',(-3.E1,1.1E1,1.E1));
#89=LINE('',#88,#87);
#90=DIRECTION('',(-7.071067811865E-1,-7.071067811865E-1,0.E0));
#91=VECTOR('',#90,5.656854249492E0);
#92=CARTESIAN_POINT('',(-2.6E1,1.5E1,1.E1));
#93=LINE('',#92,#91);
#94=DIRECTION('',(-1.E0,0.E0,0.E0));
#95=VECTOR('',#94,5.2E1);
#96=CARTESIAN_POINT('',(2.6E1,1.5E1,1.E1));
#97=LINE('',#96,#95);
#98=DIRECTION('',(-7.071067811865E-1,7.071067811865E-1,0.E0));
#99=VECTOR('',#98,5.656854249492E0);
#100=CARTESIAN_POINT('',(3.E1,1.1E1,1.E1));
#101=LINE('',#100,#99);
#102=DIRECTION('',(0.E0,1.E0,0.E0));
#103=VECTOR('',#102,2.2E1);
#104=CARTESIAN_POINT('',(3.E1,-1.1E1,1.E1));
#105=LINE('',#104,#103);
#106=DIRECTION('',(7.071067811865E-1,7.071067811865E-1,0.E0));
#107=VECTOR('',#106,5.656854249492E0);
#108=CARTESIAN_POINT('',(2.6E1,-1.5E1,1.E1));
#109=LINE('',#108,#107);
#110=DIRECTION('',(1.E0,0.E0,0.E0));
#111=VECTOR('',#110,5.2E1);
#112=CARTESIAN_POINT('',(-2.6E1,-1.5E1,1.E1));
#113=LINE('',#112,#111);
#114=DIRECTION('',(0.E0,0.E0,-1.E0));
#115=VECTOR('',#114,2.E1);
#116=CARTESIAN_POINT('',(1.975E1,0.E0,1.E1));
#117=LINE('',#116,#115);
#118=DIRECTION('',(0.E0,0.E0,-1.E0));
#119=VECTOR('',#118,2.E1);
#120=CARTESIAN_POINT('',(2.625E1,0.E0,1.E1));
#121=LINE('',#120,#119);
#122=DIRECTION('',(0.E0,0.E0,-1.E0));
#123=VECTOR('',#122,2.E1);
#124=CARTESIAN_POINT('',(-3.E1,-1.1E1,1.E1));
#125=LINE('',#124,#123);
#126=DIRECTION('',(0.E0,0.E0,-1.E0));
#127=VECTOR('',#126,2.E1);
#128=CARTESIAN_POINT('',(-3.E1,1.1E1,1.E1));
#129=LINE('',#128,#127);
#130=DIRECTION('',(0.E0,0.E0,-1.E0));
#131=VECTOR('',#130,2.E1);
#132=CARTESIAN_POINT('',(-2.6E1,1.5E1,1.E1));
#133=LINE('',#132,#131);
#134=DIRECTION('',(0.E0,0.E0,-1.E0));
#135=VECTOR('',#134,2.E1);
#136=CARTESIAN_POINT('',(2.6E1,1.5E1,1.E1));
#137=LINE('',#136,#135);
#138=DIRECTION('',(0.E0,0.E0,-1.E0));
#139=VECTOR('',#138,2.E1);
#140=CARTESIAN_POINT('',(3.E1,1.1E1,1.E1));
#141=LINE('',#140,#139);
#142=DIRECTION('',(0.E0,0.E0,-1.E0));
#143=VECTOR('',#142,2.E1);
#144=CARTESIAN_POINT('',(3.E1,-1.1E1,1.E1));
#145=LINE('',#144,#143);
#146=DIRECTION('',(0.E0,0.E0,-1.E0));
#147=VECTOR('',#146,2.E1);
#148=CARTESIAN_POINT('',(-2.6E1,-1.5E1,1.E1));
#149=LINE('',#148,#147);
#150=DIRECTION('',(0.E0,0.E0,-1.E0));
#151=VECTOR('',#150,2.E1);
#152=CARTESIAN_POINT('',(2.6E1,-1.5E1,1.E1));
#153=LINE('',#152,#151);
#154=CARTESIAN_POINT('',(-2.625E1,0.E0,-1.E1));
#155=CARTESIAN_POINT('',(-1.975E1,0.E0,-1.E1));
#156=VERTEX_POINT('',#154);
#157=VERTEX_POINT('',#155);
#158=CARTESIAN_POINT('',(-2.625E1,0.E0,1.E1));
#159=CARTESIAN_POINT('',(-1.975E1,0.E0,1.E1));
#160=VERTEX_POINT('',#158);
#161=VERTEX_POINT('',#159);
#162=CARTESIAN_POINT('',(1.975E1,0.E0,-1.E1));
#163=CARTESIAN_POINT('',(2.625E1,0.E0,-1.E1));
#164=VERTEX_POINT('',#162);
#165=VERTEX_POINT('',#163);
#166=CARTESIAN_POINT('',(1.975E1,0.E0,1.E1));
#167=CARTESIAN_POINT('',(2.625E1,0.E0,1.E1));
#168=VERTEX_POINT('',#166);
#169=VERTEX_POINT('',#167);
#170=CARTESIAN_POINT('',(-2.6E1,-1.5E1,-1.E1));
#171=CARTESIAN_POINT('',(-3.E1,-1.1E1,-1.E1));
#172=VERTEX_POINT('',#170);
#173=VERTEX_POINT('',#171);
#174=CARTESIAN_POINT('',(-3.E1,-1.1E1,1.E1));
#175=VERTEX_POINT('',#174);
#176=CARTESIAN_POINT('',(-2.6E1,-1.5E1,1.E1));
#177=VERTEX_POINT('',#176);
#178=CARTESIAN_POINT('',(-3.E1,1.1E1,-1.E1));
#179=CARTESIAN_POINT('',(-2.6E1,1.5E1,-1.E1));
#180=VERTEX_POINT('',#178);
#181=VERTEX_POINT('',#179);
#182=CARTESIAN_POINT('',(-2.6E1,1.5E1,1.E1));
#183=VERTEX_POINT('',#182);
#184=CARTESIAN_POINT('',(-3.E1,1.1E1,1.E1));
#185=VERTEX_POINT('',#184);
#186=CARTESIAN_POINT('',(2.6E1,1.5E1,-1.E1));
#187=CARTESIAN_POINT('',(3.E1,1.1E1,-1.E1));
#188=VERTEX_POINT('',#186);
#189=VERTEX_POINT('',#187);
#190=CARTESIAN_POINT('',(3.E1,1.1E1,1.E1));
#191=VERTEX_POINT('',#190);
#192=CARTESIAN_POINT('',(2.6E1,1.5E1,1.E1));
#193=VERTEX_POINT('',#192);
#194=CARTESIAN_POINT('',(3.E1,-1.1E1,-1.E1));
#195=CARTESIAN_POINT('',(2.6E1,-1.5E1,-1.E1));
#196=VERTEX_POINT('',#194);
#197=VERTEX_POINT('',#195);
#198=CARTESIAN_POINT('',(2.6E1,-1.5E1,1.E1));
#199=VERTEX_POINT('',#198);
#200=CARTESIAN_POINT('',(3.E1,-1.1E1,1.E1));
#201=VERTEX_POINT('',#200);
#202=CARTESIAN_POINT('',(0.E0,0.E0,-1.E1));
#203=DIRECTION('',(0.E0,0.E0,1.E0));
#204=DIRECTION('',(1.E0,0.E0,0.E0));
#205=AXIS2_PLACEMENT_3D('',#202,#203,#204);
#206=PLANE('',#205);
#208=ORIENTED_EDGE('',*,*,#207,.F.);
#210=ORIENTED_EDGE('',*,*,#209,.T.);
#212=ORIENTED_EDGE('',*,*,#211,.F.);
#214=ORIENTED_EDGE('',*,*,#213,.T.);
#216=ORIENTED_EDGE('',*,*,#215,.F.);
#218=ORIENTED_EDGE('',*,*,#217,.T.);
#220=ORIENTED_EDGE('',*,*,#219,.F.);
#222=ORIENTED_EDGE('',*,*,#221,.T.);
#223=EDGE_LOOP('',(#208,#210,#212,#214,#216,#218,#220,#222));
#224=FACE_OUTER_BOUND('',#223,.F.);
#226=ORIENTED_EDGE('',*,*,#225,.T.);
#228=ORIENTED_EDGE('',*,*,#227,.T.);
#229=EDGE_LOOP('',(#226,#228));
#230=FACE_BOUND('',#229,.F.);
#232=ORIENTED_EDGE('',*,*,#231,.T.);
#234=ORIENTED_EDGE('',*,*,#233,.T.);
#235=EDGE_LOOP('',(#232,#234));
#236=FACE_BOUND('',#235,.F.);
#237=ADVANCED_FACE('',(#224,#230,#236),#206,.F.);
#238=CARTESIAN_POINT('',(-2.3E1,0.E0,1.E1));
#239=DIRECTION('',(0.E0,0.E0,-1.E0));
#240=DIRECTION('',(-1.E0,0.E0,0.E0));
#241=AXIS2_PLACEMENT_3D('',#238,#239,#240);
#242=CYLINDRICAL_SURFACE('',#241,3.25E0);
#243=ORIENTED_EDGE('',*,*,#231,.F.);
#245=ORIENTED_EDGE('',*,*,#244,.F.);
#247=ORIENTED_EDGE('',*,*,#246,.T.);
#249=ORIENTED_EDGE('',*,*,#248,.T.);
#250=EDGE_LOOP('',(#243,#245,#247,#249));
#251=FACE_OUTER_BOUND('',#250,.F.);
#252=ADVANCED_FACE('',(#251),#242,.F.);
#253=CARTESIAN_POINT('',(-2.3E1,0.E0,1.E1));
#254=DIRECTION('',(0.E0,0.E0,-1.E0));
#255=DIRECTION('',(-1.E0,0.E0,0.E0));
#256=AXIS2_PLACEMENT_3D('',#253,#254,#255);
#257=CYLINDRICAL_SURFACE('',#256,3.25E0);
#258=ORIENTED_EDGE('',*,*,#233,.F.);
#259=ORIENTED_EDGE('',*,*,#248,.F.);
#261=ORIENTED_EDGE('',*,*,#260,.T.);
#262=ORIENTED_EDGE('',*,*,#244,.T.);
#263=EDGE_LOOP('',(#258,#259,#261,#262));
#264=FACE_OUTER_BOUND('',#263,.F.);
#265=ADVANCED_FACE('',(#264),#257,.F.);
#266=CARTESIAN_POINT('',(0.E0,0.E0,1.E1));
#267=DIRECTION('',(0.E0,0.E0,1.E0));
#268=DIRECTION('',(1.E0,0.E0,0.E0));
#269=AXIS2_PLACEMENT_3D('',#266,#267,#268);
#270=PLANE('',#269);
#272=ORIENTED_EDGE('',*,*,#271,.F.);
#274=ORIENTED_EDGE('',*,*,#273,.F.);
#276=ORIENTED_EDGE('',*,*,#275,.F.);
#278=ORIENTED_EDGE('',*,*,#277,.F.);
#280=ORIENTED_EDGE('',*,*,#279,.F.);
#282=ORIENTED_EDGE('',*,*,#281,.F.);
#284=ORIENTED_EDGE('',*,*,#283,.F.);
#286=ORIENTED_EDGE('',*,*,#285,.F.);
#287=EDGE_LOOP('',(#272,#274,#276,#278,#280,#282,#284,#286));
#288=FACE_OUTER_BOUND('',#287,.F.);
#290=ORIENTED_EDGE('',*,*,#289,.F.);
#292=ORIENTED_EDGE('',*,*,#291,.F.);
#293=EDGE_LOOP('',(#290,#292));
#294=FACE_BOUND('',#293,.F.);
#295=ORIENTED_EDGE('',*,*,#246,.F.);
#296=ORIENTED_EDGE('',*,*,#260,.F.);
#297=EDGE_LOOP('',(#295,#296));
#298=FACE_BOUND('',#297,.F.);
#299=ADVANCED_FACE('',(#288,#294,#298),#270,.T.);
#300=CARTESIAN_POINT('',(2.3E1,0.E0,1.E1));
#301=DIRECTION('',(0.E0,0.E0,-1.E0));
#302=DIRECTION('',(-1.E0,0.E0,0.E0));
#303=AXIS2_PLACEMENT_3D('',#300,#301,#302);
#304=CYLINDRICAL_SURFACE('',#303,3.25E0);
#305=ORIENTED_EDGE('',*,*,#225,.F.);
#307=ORIENTED_EDGE('',*,*,#306,.F.);
#308=ORIENTED_EDGE('',*,*,#289,.T.);
#310=ORIENTED_EDGE('',*,*,#309,.T.);
#311=EDGE_LOOP('',(#305,#307,#308,#310));
#312=FACE_OUTER_BOUND('',#311,.F.);
#313=ADVANCED_FACE('',(#312),#304,.F.);
#314=CARTESIAN_POINT('',(2.3E1,0.E0,1.E1));
#315=DIRECTION('',(0.E0,0.E0,-1.E0));
#316=DIRECTION('',(-1.E0,0.E0,0.E0));
#317=AXIS2_PLACEMENT_3D('',#314,#315,#316);
#318=CYLINDRICAL_SURFACE('',#317,3.25E0);
#319=ORIENTED_EDGE('',*,*,#227,.F.);
#320=ORIENTED_EDGE('',*,*,#309,.F.);
#321=ORIENTED_EDGE('',*,*,#291,.T.);
#322=ORIENTED_EDGE('',*,*,#306,.T.);
#323=EDGE_LOOP('',(#319,#320,#321,#322));
#324=FACE_OUTER_BOUND('',#323,.F.);
#325=ADVANCED_FACE('',(#324),#318,.F.);
#326=CARTESIAN_POINT('',(-2.8E1,-1.3E1,0.E0));
#327=DIRECTION('',(-7.071067811865E-1,-7.071067811865E-1,0.E0));
#328=DIRECTION('',(-7.071067811865E-1,7.071067811865E-1,0.E0));
#329=AXIS2_PLACEMENT_3D('',#326,#327,#328);
#330=PLANE('',#329);
#331=ORIENTED_EDGE('',*,*,#207,.T.);
#333=ORIENTED_EDGE('',*,*,#332,.F.);
#334=ORIENTED_EDGE('',*,*,#271,.T.);
#336=ORIENTED_EDGE('',*,*,#335,.T.);
#337=EDGE_LOOP('',(#331,#333,#334,#336));
#338=FACE_OUTER_BOUND('',#337,.F.);
#339=ADVANCED_FACE('',(#338),#330,.T.);
#340=CARTESIAN_POINT('',(-3.E1,1.5E1,-1.E1));
#341=DIRECTION('',(-1.E0,0.E0,0.E0));
#342=DIRECTION('',(0.E0,-1.E0,0.E0));
#343=AXIS2_PLACEMENT_3D('',#340,#341,#342);
#344=PLANE('',#343);
#345=ORIENTED_EDGE('',*,*,#332,.T.);
#346=ORIENTED_EDGE('',*,*,#221,.F.);
#348=ORIENTED_EDGE('',*,*,#347,.F.);
#349=ORIENTED_EDGE('',*,*,#273,.T.);
#350=EDGE_LOOP('',(#345,#346,#348,#349));
#351=FACE_OUTER_BOUND('',#350,.F.);
#352=ADVANCED_FACE('',(#351),#344,.T.);
#353=CARTESIAN_POINT('',(-2.8E1,1.3E1,0.E0));
#354=DIRECTION('',(-7.071067811865E-1,7.071067811865E-1,0.E0));
#355=DIRECTION('',(7.071067811865E-1,7.071067811865E-1,0.E0));
#356=AXIS2_PLACEMENT_3D('',#353,#354,#355);
#357=PLANE('',#356);
#358=ORIENTED_EDGE('',*,*,#219,.T.);
#360=ORIENTED_EDGE('',*,*,#359,.F.);
#361=ORIENTED_EDGE('',*,*,#275,.T.);
#362=ORIENTED_EDGE('',*,*,#347,.T.);
#363=EDGE_LOOP('',(#358,#360,#361,#362));
#364=FACE_OUTER_BOUND('',#363,.F.);
#365=ADVANCED_FACE('',(#364),#357,.T.);
#366=CARTESIAN_POINT('',(3.E1,1.5E1,-1.E1));
#367=DIRECTION('',(0.E0,1.E0,0.E0));
#368=DIRECTION('',(-1.E0,0.E0,0.E0));
#369=AXIS2_PLACEMENT_3D('',#366,#367,#368);
#370=PLANE('',#369);
#371=ORIENTED_EDGE('',*,*,#359,.T.);
#372=ORIENTED_EDGE('',*,*,#217,.F.);
#374=ORIENTED_EDGE('',*,*,#373,.F.);
#375=ORIENTED_EDGE('',*,*,#277,.T.);
#376=EDGE_LOOP('',(#371,#372,#374,#375));
#377=FACE_OUTER_BOUND('',#376,.F.);
#378=ADVANCED_FACE('',(#377),#370,.T.);
#379=CARTESIAN_POINT('',(2.8E1,1.3E1,0.E0));
#380=DIRECTION('',(7.071067811865E-1,7.071067811865E-1,0.E0));
#381=DIRECTION('',(7.071067811865E-1,-7.071067811865E-1,0.E0));
#382=AXIS2_PLACEMENT_3D('',#379,#380,#381);
#383=PLANE('',#382);
#384=ORIENTED_EDGE('',*,*,#215,.T.);
#386=ORIENTED_EDGE('',*,*,#385,.F.);
#387=ORIENTED_EDGE('',*,*,#279,.T.);
#388=ORIENTED_EDGE('',*,*,#373,.T.);
#389=EDGE_LOOP('',(#384,#386,#387,#388));
#390=FACE_OUTER_BOUND('',#389,.F.);
#391=ADVANCED_FACE('',(#390),#383,.T.);
#392=CARTESIAN_POINT('',(3.E1,-1.5E1,-1.E1));
#393=DIRECTION('',(1.E0,0.E0,0.E0));
#394=DIRECTION('',(0.E0,1.E0,0.E0));
#395=AXIS2_PLACEMENT_3D('',#392,#393,#394);
#396=PLANE('',#395);
#397=ORIENTED_EDGE('',*,*,#385,.T.);
#398=ORIENTED_EDGE('',*,*,#213,.F.);
#400=ORIENTED_EDGE('',*,*,#399,.F.);
#401=ORIENTED_EDGE('',*,*,#281,.T.);
#402=EDGE_LOOP('',(#397,#398,#400,#401));
#403=FACE_OUTER_BOUND('',#402,.F.);
#404=ADVANCED_FACE('',(#403),#396,.T.);
#405=CARTESIAN_POINT('',(2.8E1,-1.3E1,0.E0));
#406=DIRECTION('',(7.071067811865E-1,-7.071067811865E-1,0.E0));
#407=DIRECTION('',(-7.071067811865E-1,-7.071067811865E-1,0.E0));
#408=AXIS2_PLACEMENT_3D('',#405,#406,#407);
#409=PLANE('',#408);
#410=ORIENTED_EDGE('',*,*,#211,.T.);
#412=ORIENTED_EDGE('',*,*,#411,.F.);
#413=ORIENTED_EDGE('',*,*,#283,.T.);
#414=ORIENTED_EDGE('',*,*,#399,.T.);
#415=EDGE_LOOP('',(#410,#412,#413,#414));
#416=FACE_OUTER_BOUND('',#415,.F.);
#417=ADVANCED_FACE('',(#416),#409,.T.);
#418=CARTESIAN_POINT('',(-3.E1,-1.5E1,-1.E1));
#419=DIRECTION('',(0.E0,-1.E0,0.E0));
#420=DIRECTION('',(1.E0,0.E0,0.E0));
#421=AXIS2_PLACEMENT_3D('',#418,#419,#420);
#422=PLANE('',#421);
#423=ORIENTED_EDGE('',*,*,#335,.F.);
#424=ORIENTED_EDGE('',*,*,#285,.T.);
#425=ORIENTED_EDGE('',*,*,#411,.T.);
#426=ORIENTED_EDGE('',*,*,#209,.F.);
#427=EDGE_LOOP('',(#423,#424,#425,#426));
#428=FACE_OUTER_BOUND('',#427,.F.);
#429=ADVANCED_FACE('',(#428),#422,.T.);
#430=CLOSED_SHELL('',(#237,#252,#265,#299,#313,#325,#339,#352,#365,#378,#391,
#404,#417,#429));
#431=MANIFOLD_SOLID_BREP('',#430);
#433=DIMENSIONAL_EXPONENTS(0.E0,0.E0,0.E0,0.E0,0.E0,0.E0,0.E0);
#435=PLANE_ANGLE_MEASURE_WITH_UNIT(PLANE_ANGLE_MEASURE(1.745329251994E-2),#434);
#436=(CONVERSION_BASED_UNIT('DEGREE',#435)NAMED_UNIT(*)PLANE_ANGLE_UNIT());
#438=UNCERTAINTY_MEASURE_WITH_UNIT(LENGTH_MEASURE(6.99972E-3),#432,'closure',
'Maximum model space distance between geometric entities at asserted connectivities');
#439=(GEOMETRIC_REPRESENTATION_CONTEXT(3)GLOBAL_UNCERTAINTY_ASSIGNED_CONTEXT((
#438))GLOBAL_UNIT_ASSIGNED_CONTEXT((#432,#436,#437))REPRESENTATION_CONTEXT
('ID1','3'));
#441=APPLICATION_CONTEXT(
'CONFIGURATION CONTROLLED 3D DESIGNS OF MECHANICAL PARTS AND ASSEMBLIES');
#442=APPLICATION_PROTOCOL_DEFINITION('international standard',
'config_control_design',1994,#441);
#443=DESIGN_CONTEXT('',#441,'design');
#444=MECHANICAL_CONTEXT('',#441,'mechanical');
#445=PRODUCT('286_00_32_318','286_00_32_318','NOT SPECIFIED',(#444));
#446=PRODUCT_DEFINITION_FORMATION_WITH_SPECIFIED_SOURCE('7','LAST_VERSION',#445,
.MADE.);
#450=PRODUCT_CATEGORY('part','');
#451=PRODUCT_RELATED_PRODUCT_CATEGORY('detail','',(#445));
#452=PRODUCT_CATEGORY_RELATIONSHIP('','',#450,#451);
#453=SECURITY_CLASSIFICATION_LEVEL('unclassified');
#454=SECURITY_CLASSIFICATION('','',#453);
#455=CC_DESIGN_SECURITY_CLASSIFICATION(#454,(#446));
#456=APPROVAL_STATUS('approved');
#457=APPROVAL(#456,'');
#458=CC_DESIGN_APPROVAL(#457,(#454,#446,#447));
#459=CALENDAR_DATE(120,20,3);
#460=COORDINATED_UNIVERSAL_TIME_OFFSET(1,0,.AHEAD.);
#461=LOCAL_TIME(10,56,1.5E1,#460);
#462=DATE_AND_TIME(#459,#461);
#463=APPROVAL_DATE_TIME(#462,#457);
#464=DATE_TIME_ROLE('creation_date');
#465=CC_DESIGN_DATE_AND_TIME_ASSIGNMENT(#462,#464,(#447));
#466=DATE_TIME_ROLE('classification_date');
#467=CC_DESIGN_DATE_AND_TIME_ASSIGNMENT(#462,#466,(#454));
#468=PERSON('UNSPECIFIED','UNSPECIFIED',$,$,$,$);
#469=ORGANIZATION('UNSPECIFIED','UNSPECIFIED','UNSPECIFIED');
#470=PERSON_AND_ORGANIZATION(#468,#469);
#471=APPROVAL_ROLE('approver');
#472=APPROVAL_PERSON_ORGANIZATION(#470,#457,#471);
#473=PERSON_AND_ORGANIZATION_ROLE('creator');
#474=CC_DESIGN_PERSON_AND_ORGANIZATION_ASSIGNMENT(#470,#473,(#446,#447));
#475=PERSON_AND_ORGANIZATION_ROLE('design_supplier');
#476=CC_DESIGN_PERSON_AND_ORGANIZATION_ASSIGNMENT(#470,#475,(#446));
#477=PERSON_AND_ORGANIZATION_ROLE('classification_officer');
#478=CC_DESIGN_PERSON_AND_ORGANIZATION_ASSIGNMENT(#470,#477,(#454));
#479=PERSON_AND_ORGANIZATION_ROLE('design_owner');
#480=CC_DESIGN_PERSON_AND_ORGANIZATION_ASSIGNMENT(#470,#479,(#445));
#6=CIRCLE('',#5,3.25E0);
#11=CIRCLE('',#10,3.25E0);
#16=CIRCLE('',#15,3.25E0);
#21=CIRCLE('',#20,3.25E0);
#66=CIRCLE('',#65,3.25E0);
#71=CIRCLE('',#70,3.25E0);
#76=CIRCLE('',#75,3.25E0);
#81=CIRCLE('',#80,3.25E0);
#207=EDGE_CURVE('',#172,#173,#25,.T.);
#209=EDGE_CURVE('',#172,#197,#29,.T.);
#211=EDGE_CURVE('',#196,#197,#33,.T.);
#213=EDGE_CURVE('',#196,#189,#37,.T.);
#215=EDGE_CURVE('',#188,#189,#41,.T.);
#217=EDGE_CURVE('',#188,#181,#45,.T.);
#219=EDGE_CURVE('',#180,#181,#49,.T.);
#221=EDGE_CURVE('',#180,#173,#53,.T.);
#225=EDGE_CURVE('',#164,#165,#16,.T.);
#227=EDGE_CURVE('',#165,#164,#21,.T.);
#231=EDGE_CURVE('',#156,#157,#6,.T.);
#233=EDGE_CURVE('',#157,#156,#11,.T.);
#244=EDGE_CURVE('',#160,#156,#57,.T.);
#246=EDGE_CURVE('',#160,#161,#66,.T.);
#248=EDGE_CURVE('',#161,#157,#61,.T.);
#260=EDGE_CURVE('',#161,#160,#71,.T.);
#271=EDGE_CURVE('',#175,#177,#85,.T.);
#273=EDGE_CURVE('',#185,#175,#89,.T.);
#275=EDGE_CURVE('',#183,#185,#93,.T.);
#277=EDGE_CURVE('',#193,#183,#97,.T.);
#279=EDGE_CURVE('',#191,#193,#101,.T.);
#281=EDGE_CURVE('',#201,#191,#105,.T.);
#283=EDGE_CURVE('',#199,#201,#109,.T.);
#285=EDGE_CURVE('',#177,#199,#113,.T.);
#289=EDGE_CURVE('',#168,#169,#76,.T.);
#291=EDGE_CURVE('',#169,#168,#81,.T.);
#306=EDGE_CURVE('',#168,#164,#117,.T.);
#309=EDGE_CURVE('',#169,#165,#121,.T.);
#332=EDGE_CURVE('',#175,#173,#125,.T.);
#335=EDGE_CURVE('',#177,#172,#149,.T.);
#347=EDGE_CURVE('',#185,#180,#129,.T.);
#359=EDGE_CURVE('',#183,#181,#133,.T.);
#373=EDGE_CURVE('',#193,#188,#137,.T.);
#385=EDGE_CURVE('',#191,#189,#141,.T.);
#399=EDGE_CURVE('',#201,#196,#145,.T.);
#411=EDGE_CURVE('',#199,#197,#153,.T.);
#432=(LENGTH_UNIT()NAMED_UNIT(*)SI_UNIT(.MILLI.,.METRE.));
#434=(NAMED_UNIT(*)PLANE_ANGLE_UNIT()SI_UNIT($,.RADIAN.));
#437=(NAMED_UNIT(*)SI_UNIT($,.STERADIAN.)SOLID_ANGLE_UNIT());
#440=ADVANCED_BREP_SHAPE_REPRESENTATION('',(#431),#439);
#447=PRODUCT_DEFINITION('design','',#446,#443);
#448=PRODUCT_DEFINITION_SHAPE('','SHAPE FOR 286_00_32_318.',#447);
#449=SHAPE_DEFINITION_REPRESENTATION(#448,#440);
ENDSEC;
END-ISO-10303-21;
