ISO-10303-21;
HEADER;
/* Generated by software containing ST-Developer
 * from STEP Tools, Inc. (www.steptools.com) 
 */

FILE_DESCRIPTION(
/* description */ (''),
/* implementation_level */ '2;1');

FILE_NAME(
/* name */ 
'C:\\Users\\antonio.gurciullo\\Documents\\Software\\Autodesk Inventor\\
Cathode_Plasma_controls\\PC_Exo_2\\Cercamic_bush_F.stp',
/* time_stamp */ '2020-04-09T16:35:58+02:00',
/* author */ ('antonio.gurciullo'),
/* organization */ (''),
/* preprocessor_version */ 'ST-DEVELOPER v18',
/* originating_system */ 'Autodesk Inventor 2020',
/* authorisation */ '');

FILE_SCHEMA (('AUTOMOTIVE_DESIGN { 1 0 10303 214 3 1 1 }'));
ENDSEC;

DATA;
#10=MECHANICAL_DESIGN_GEOMETRIC_PRESENTATION_REPRESENTATION('',(#13),#226);
#11=SHAPE_REPRESENTATION_RELATIONSHIP('SRR','None',#233,#12);
#12=ADVANCED_BREP_SHAPE_REPRESENTATION('',(#14),#225);
#13=STYLED_ITEM('',(#242),#14);
#14=MANIFOLD_SOLID_BREP('Solid1',#115);
#15=FACE_BOUND('',#29,.T.);
#16=FACE_BOUND('',#33,.T.);
#17=FACE_BOUND('',#35,.T.);
#18=PLANE('',#140);
#19=PLANE('',#150);
#20=PLANE('',#151);
#21=FACE_OUTER_BOUND('',#27,.T.);
#22=FACE_OUTER_BOUND('',#28,.T.);
#23=FACE_OUTER_BOUND('',#30,.T.);
#24=FACE_OUTER_BOUND('',#31,.T.);
#25=FACE_OUTER_BOUND('',#32,.T.);
#26=FACE_OUTER_BOUND('',#34,.T.);
#27=EDGE_LOOP('',(#78,#79,#80,#81,#82,#83));
#28=EDGE_LOOP('',(#84,#85));
#29=EDGE_LOOP('',(#86,#87));
#30=EDGE_LOOP('',(#88,#89,#90,#91,#92));
#31=EDGE_LOOP('',(#93,#94,#95,#96,#97,#98));
#32=EDGE_LOOP('',(#99,#100));
#33=EDGE_LOOP('',(#101,#102));
#34=EDGE_LOOP('',(#103,#104));
#35=EDGE_LOOP('',(#105));
#36=LINE('',#198,#39);
#37=LINE('',#209,#40);
#38=LINE('',#217,#41);
#39=VECTOR('',#160,1.85);
#40=VECTOR('',#173,0.9);
#41=VECTOR('',#182,2.75);
#42=CIRCLE('',#136,1.85);
#43=CIRCLE('',#137,1.85);
#44=CIRCLE('',#138,1.85);
#45=CIRCLE('',#139,1.85);
#46=CIRCLE('',#141,0.9);
#47=CIRCLE('',#142,0.9);
#48=CIRCLE('',#144,0.9);
#49=CIRCLE('',#146,2.75);
#50=CIRCLE('',#147,2.75);
#51=CIRCLE('',#148,2.75);
#52=CIRCLE('',#149,2.75);
#53=VERTEX_POINT('',#193);
#54=VERTEX_POINT('',#194);
#55=VERTEX_POINT('',#197);
#56=VERTEX_POINT('',#199);
#57=VERTEX_POINT('',#203);
#58=VERTEX_POINT('',#204);
#59=VERTEX_POINT('',#208);
#60=VERTEX_POINT('',#212);
#61=VERTEX_POINT('',#213);
#62=VERTEX_POINT('',#216);
#63=VERTEX_POINT('',#218);
#64=EDGE_CURVE('',#53,#54,#42,.T.);
#65=EDGE_CURVE('',#54,#53,#43,.T.);
#66=EDGE_CURVE('',#54,#55,#36,.T.);
#67=EDGE_CURVE('',#55,#56,#44,.T.);
#68=EDGE_CURVE('',#56,#55,#45,.T.);
#69=EDGE_CURVE('',#57,#58,#46,.T.);
#70=EDGE_CURVE('',#58,#57,#47,.T.);
#71=EDGE_CURVE('',#58,#59,#37,.T.);
#72=EDGE_CURVE('',#59,#59,#48,.T.);
#73=EDGE_CURVE('',#60,#61,#49,.T.);
#74=EDGE_CURVE('',#61,#60,#50,.T.);
#75=EDGE_CURVE('',#61,#62,#38,.T.);
#76=EDGE_CURVE('',#62,#63,#51,.T.);
#77=EDGE_CURVE('',#63,#62,#52,.T.);
#78=ORIENTED_EDGE('',*,*,#64,.F.);
#79=ORIENTED_EDGE('',*,*,#65,.F.);
#80=ORIENTED_EDGE('',*,*,#66,.T.);
#81=ORIENTED_EDGE('',*,*,#67,.T.);
#82=ORIENTED_EDGE('',*,*,#68,.T.);
#83=ORIENTED_EDGE('',*,*,#66,.F.);
#84=ORIENTED_EDGE('',*,*,#68,.F.);
#85=ORIENTED_EDGE('',*,*,#67,.F.);
#86=ORIENTED_EDGE('',*,*,#69,.F.);
#87=ORIENTED_EDGE('',*,*,#70,.F.);
#88=ORIENTED_EDGE('',*,*,#69,.T.);
#89=ORIENTED_EDGE('',*,*,#71,.T.);
#90=ORIENTED_EDGE('',*,*,#72,.T.);
#91=ORIENTED_EDGE('',*,*,#71,.F.);
#92=ORIENTED_EDGE('',*,*,#70,.T.);
#93=ORIENTED_EDGE('',*,*,#73,.F.);
#94=ORIENTED_EDGE('',*,*,#74,.F.);
#95=ORIENTED_EDGE('',*,*,#75,.T.);
#96=ORIENTED_EDGE('',*,*,#76,.T.);
#97=ORIENTED_EDGE('',*,*,#77,.T.);
#98=ORIENTED_EDGE('',*,*,#75,.F.);
#99=ORIENTED_EDGE('',*,*,#73,.T.);
#100=ORIENTED_EDGE('',*,*,#74,.T.);
#101=ORIENTED_EDGE('',*,*,#64,.T.);
#102=ORIENTED_EDGE('',*,*,#65,.T.);
#103=ORIENTED_EDGE('',*,*,#77,.F.);
#104=ORIENTED_EDGE('',*,*,#76,.F.);
#105=ORIENTED_EDGE('',*,*,#72,.F.);
#106=CYLINDRICAL_SURFACE('',#135,1.85);
#107=CYLINDRICAL_SURFACE('',#143,0.9);
#108=CYLINDRICAL_SURFACE('',#145,2.75);
#109=ADVANCED_FACE('',(#21),#106,.F.);
#110=ADVANCED_FACE('',(#22,#15),#18,.T.);
#111=ADVANCED_FACE('',(#23),#107,.F.);
#112=ADVANCED_FACE('',(#24),#108,.T.);
#113=ADVANCED_FACE('',(#25,#16),#19,.T.);
#114=ADVANCED_FACE('',(#26,#17),#20,.F.);
#115=CLOSED_SHELL('',(#109,#110,#111,#112,#113,#114));
#116=DERIVED_UNIT_ELEMENT(#118,1.);
#117=DERIVED_UNIT_ELEMENT(#228,3.);
#118=(
MASS_UNIT()
NAMED_UNIT(*)
SI_UNIT($,.GRAM.)
);
#119=DERIVED_UNIT((#116,#117));
#120=MEASURE_REPRESENTATION_ITEM('density measure',
POSITIVE_RATIO_MEASURE(1.),#119);
#121=PROPERTY_DEFINITION_REPRESENTATION(#126,#123);
#122=PROPERTY_DEFINITION_REPRESENTATION(#127,#124);
#123=REPRESENTATION('material name',(#125),#225);
#124=REPRESENTATION('density',(#120),#225);
#125=DESCRIPTIVE_REPRESENTATION_ITEM('Generic','Generic');
#126=PROPERTY_DEFINITION('material property','material name',#235);
#127=PROPERTY_DEFINITION('material property','density of part',#235);
#128=DATE_TIME_ROLE('creation_date');
#129=APPLIED_DATE_AND_TIME_ASSIGNMENT(#130,#128,(#235));
#130=DATE_AND_TIME(#131,#132);
#131=CALENDAR_DATE(2020,9,4);
#132=LOCAL_TIME(13,28,35.,#133);
#133=COORDINATED_UNIVERSAL_TIME_OFFSET(0,0,.BEHIND.);
#134=AXIS2_PLACEMENT_3D('placement',#191,#152,#153);
#135=AXIS2_PLACEMENT_3D('',#192,#154,#155);
#136=AXIS2_PLACEMENT_3D('',#195,#156,#157);
#137=AXIS2_PLACEMENT_3D('',#196,#158,#159);
#138=AXIS2_PLACEMENT_3D('',#200,#161,#162);
#139=AXIS2_PLACEMENT_3D('',#201,#163,#164);
#140=AXIS2_PLACEMENT_3D('',#202,#165,#166);
#141=AXIS2_PLACEMENT_3D('',#205,#167,#168);
#142=AXIS2_PLACEMENT_3D('',#206,#169,#170);
#143=AXIS2_PLACEMENT_3D('',#207,#171,#172);
#144=AXIS2_PLACEMENT_3D('',#210,#174,#175);
#145=AXIS2_PLACEMENT_3D('',#211,#176,#177);
#146=AXIS2_PLACEMENT_3D('',#214,#178,#179);
#147=AXIS2_PLACEMENT_3D('',#215,#180,#181);
#148=AXIS2_PLACEMENT_3D('',#219,#183,#184);
#149=AXIS2_PLACEMENT_3D('',#220,#185,#186);
#150=AXIS2_PLACEMENT_3D('',#221,#187,#188);
#151=AXIS2_PLACEMENT_3D('',#222,#189,#190);
#152=DIRECTION('axis',(0.,0.,1.));
#153=DIRECTION('refdir',(1.,0.,0.));
#154=DIRECTION('center_axis',(0.,-1.,0.));
#155=DIRECTION('ref_axis',(1.,0.,0.));
#156=DIRECTION('center_axis',(0.,-1.,0.));
#157=DIRECTION('ref_axis',(1.,0.,0.));
#158=DIRECTION('center_axis',(0.,-1.,0.));
#159=DIRECTION('ref_axis',(1.,0.,0.));
#160=DIRECTION('',(0.,-1.,0.));
#161=DIRECTION('center_axis',(0.,-1.,0.));
#162=DIRECTION('ref_axis',(1.,0.,0.));
#163=DIRECTION('center_axis',(0.,-1.,0.));
#164=DIRECTION('ref_axis',(1.,0.,0.));
#165=DIRECTION('center_axis',(0.,1.,0.));
#166=DIRECTION('ref_axis',(0.,0.,1.));
#167=DIRECTION('center_axis',(0.,1.,0.));
#168=DIRECTION('ref_axis',(1.,0.,0.));
#169=DIRECTION('center_axis',(0.,1.,0.));
#170=DIRECTION('ref_axis',(1.,0.,0.));
#171=DIRECTION('center_axis',(0.,1.,0.));
#172=DIRECTION('ref_axis',(1.,0.,0.));
#173=DIRECTION('',(0.,-1.,0.));
#174=DIRECTION('center_axis',(0.,-1.,0.));
#175=DIRECTION('ref_axis',(1.,0.,0.));
#176=DIRECTION('center_axis',(0.,1.,0.));
#177=DIRECTION('ref_axis',(-1.,0.,0.));
#178=DIRECTION('center_axis',(0.,1.,0.));
#179=DIRECTION('ref_axis',(-1.,0.,0.));
#180=DIRECTION('center_axis',(0.,1.,0.));
#181=DIRECTION('ref_axis',(-1.,0.,0.));
#182=DIRECTION('',(0.,-1.,0.));
#183=DIRECTION('center_axis',(0.,1.,0.));
#184=DIRECTION('ref_axis',(-1.,0.,0.));
#185=DIRECTION('center_axis',(0.,1.,0.));
#186=DIRECTION('ref_axis',(-1.,0.,0.));
#187=DIRECTION('center_axis',(0.,1.,0.));
#188=DIRECTION('ref_axis',(0.,0.,1.));
#189=DIRECTION('center_axis',(0.,1.,0.));
#190=DIRECTION('ref_axis',(0.,0.,1.));
#191=CARTESIAN_POINT('',(0.,0.,0.));
#192=CARTESIAN_POINT('Origin',(0.,5.,0.));
#193=CARTESIAN_POINT('',(1.85,5.,0.));
#194=CARTESIAN_POINT('',(-1.85,5.,-2.2655965784226E-16));
#195=CARTESIAN_POINT('Origin',(0.,5.,0.));
#196=CARTESIAN_POINT('Origin',(0.,5.,0.));
#197=CARTESIAN_POINT('',(-1.85,2.3,-2.2655965784226E-16));
#198=CARTESIAN_POINT('',(-1.85,5.,-2.2655965784226E-16));
#199=CARTESIAN_POINT('',(1.85,2.3,0.));
#200=CARTESIAN_POINT('Origin',(0.,2.3,0.));
#201=CARTESIAN_POINT('Origin',(0.,2.3,0.));
#202=CARTESIAN_POINT('Origin',(0.,2.3,0.));
#203=CARTESIAN_POINT('',(0.9,2.3,-1.10218211923262E-16));
#204=CARTESIAN_POINT('',(-0.9,2.3,1.10218211923262E-16));
#205=CARTESIAN_POINT('Origin',(0.,2.3,0.));
#206=CARTESIAN_POINT('Origin',(0.,2.3,0.));
#207=CARTESIAN_POINT('Origin',(0.,0.,0.));
#208=CARTESIAN_POINT('',(-0.9,0.,1.10218211923262E-16));
#209=CARTESIAN_POINT('',(-0.9,0.,1.10218211923262E-16));
#210=CARTESIAN_POINT('Origin',(0.,0.,0.));
#211=CARTESIAN_POINT('Origin',(0.,0.,0.));
#212=CARTESIAN_POINT('',(-2.75,5.,0.));
#213=CARTESIAN_POINT('',(2.75,5.,-3.36777869765522E-16));
#214=CARTESIAN_POINT('Origin',(0.,5.,0.));
#215=CARTESIAN_POINT('Origin',(0.,5.,0.));
#216=CARTESIAN_POINT('',(2.75,0.,-3.36777869765522E-16));
#217=CARTESIAN_POINT('',(2.75,0.,-3.36777869765522E-16));
#218=CARTESIAN_POINT('',(-2.75,0.,0.));
#219=CARTESIAN_POINT('Origin',(0.,0.,0.));
#220=CARTESIAN_POINT('Origin',(0.,0.,0.));
#221=CARTESIAN_POINT('Origin',(0.,5.,0.));
#222=CARTESIAN_POINT('Origin',(0.,0.,0.));
#223=UNCERTAINTY_MEASURE_WITH_UNIT(LENGTH_MEASURE(0.01),#227,
'DISTANCE_ACCURACY_VALUE',
'Maximum model space distance between geometric entities at asserted c
onnectivities');
#224=UNCERTAINTY_MEASURE_WITH_UNIT(LENGTH_MEASURE(0.01),#227,
'DISTANCE_ACCURACY_VALUE',
'Maximum model space distance between geometric entities at asserted c
onnectivities');
#225=(
GEOMETRIC_REPRESENTATION_CONTEXT(3)
GLOBAL_UNCERTAINTY_ASSIGNED_CONTEXT((#223))
GLOBAL_UNIT_ASSIGNED_CONTEXT((#227,#229,#230))
REPRESENTATION_CONTEXT('','3D')
);
#226=(
GEOMETRIC_REPRESENTATION_CONTEXT(3)
GLOBAL_UNCERTAINTY_ASSIGNED_CONTEXT((#224))
GLOBAL_UNIT_ASSIGNED_CONTEXT((#227,#229,#230))
REPRESENTATION_CONTEXT('','3D')
);
#227=(
LENGTH_UNIT()
NAMED_UNIT(*)
SI_UNIT(.MILLI.,.METRE.)
);
#228=(
LENGTH_UNIT()
NAMED_UNIT(*)
SI_UNIT(.CENTI.,.METRE.)
);
#229=(
NAMED_UNIT(*)
PLANE_ANGLE_UNIT()
SI_UNIT($,.RADIAN.)
);
#230=(
NAMED_UNIT(*)
SI_UNIT($,.STERADIAN.)
SOLID_ANGLE_UNIT()
);
#231=SHAPE_DEFINITION_REPRESENTATION(#232,#233);
#232=PRODUCT_DEFINITION_SHAPE('',$,#235);
#233=SHAPE_REPRESENTATION('',(#134),#225);
#234=PRODUCT_DEFINITION_CONTEXT('part definition',#239,'design');
#235=PRODUCT_DEFINITION('Cercamic_bush_F','Cercamic_bush_F',#236,#234);
#236=PRODUCT_DEFINITION_FORMATION('',$,#241);
#237=PRODUCT_RELATED_PRODUCT_CATEGORY('Cercamic_bush_F',
'Cercamic_bush_F',(#241));
#238=APPLICATION_PROTOCOL_DEFINITION('international standard',
'automotive_design',2009,#239);
#239=APPLICATION_CONTEXT(
'Core Data for Automotive Mechanical Design Process');
#240=PRODUCT_CONTEXT('part definition',#239,'mechanical');
#241=PRODUCT('Cercamic_bush_F','Cercamic_bush_F',$,(#240));
#242=PRESENTATION_STYLE_ASSIGNMENT((#243));
#243=SURFACE_STYLE_USAGE(.BOTH.,#246);
#244=SURFACE_STYLE_RENDERING_WITH_PROPERTIES($,#250,(#245));
#245=SURFACE_STYLE_TRANSPARENT(0.);
#246=SURFACE_SIDE_STYLE('',(#247,#244));
#247=SURFACE_STYLE_FILL_AREA(#248);
#248=FILL_AREA_STYLE('',(#249));
#249=FILL_AREA_STYLE_COLOUR('',#250);
#250=COLOUR_RGB('',0.96078431372549,0.96078431372549,0.96078431372549);
ENDSEC;
END-ISO-10303-21;
