ISO-10303-21;
HEADER;
/* Generated by software containing ST-Developer
 * from STEP Tools, Inc. (www.steptools.com) 
 */

FILE_DESCRIPTION(
/* description */ (''),
/* implementation_level */ '2;1');

FILE_NAME(
/* name */ 'C:/Users/ptit-/Downloads/Fichier capteurs fer/Tube.step',
/* time_stamp */ '2020-04-09T17:00:06+02:00',
/* author */ (''),
/* organization */ (''),
/* preprocessor_version */ 'ST-DEVELOPER v18',
/* originating_system */ 'Autodesk Translation Framework v8.12.0.6',
/* authorisation */ '');

FILE_SCHEMA (('AUTOMOTIVE_DESIGN { 1 0 10303 214 3 1 1 }'));
ENDSEC;

DATA;
#10=MECHANICAL_DESIGN_GEOMETRIC_PRESENTATION_REPRESENTATION('',(#13),#437);
#11=SHAPE_REPRESENTATION_RELATIONSHIP('SRR','None',#444,#12);
#12=ADVANCED_BREP_SHAPE_REPRESENTATION('',(#14),#436);
#13=STYLED_ITEM('',(#454),#14);
#14=MANIFOLD_SOLID_BREP('Body1',#230);
#15=TOROIDAL_SURFACE('',#265,2.5,0.75);
#16=TOROIDAL_SURFACE('',#272,2.5,1.25);
#17=FACE_BOUND('',#42,.T.);
#18=FACE_BOUND('',#52,.T.);
#19=PLANE('',#253);
#20=PLANE('',#280);
#21=CYLINDRICAL_SURFACE('',#250,1.75);
#22=CYLINDRICAL_SURFACE('',#256,1.25);
#23=CYLINDRICAL_SURFACE('',#262,0.75);
#24=CYLINDRICAL_SURFACE('',#269,1.25);
#25=CYLINDRICAL_SURFACE('',#276,0.75);
#26=CYLINDRICAL_SURFACE('',#278,1.25);
#27=FACE_OUTER_BOUND('',#39,.T.);
#28=FACE_OUTER_BOUND('',#40,.T.);
#29=FACE_OUTER_BOUND('',#41,.T.);
#30=FACE_OUTER_BOUND('',#43,.T.);
#31=FACE_OUTER_BOUND('',#44,.T.);
#32=FACE_OUTER_BOUND('',#45,.T.);
#33=FACE_OUTER_BOUND('',#46,.T.);
#34=FACE_OUTER_BOUND('',#47,.T.);
#35=FACE_OUTER_BOUND('',#48,.T.);
#36=FACE_OUTER_BOUND('',#49,.T.);
#37=FACE_OUTER_BOUND('',#50,.T.);
#38=FACE_OUTER_BOUND('',#51,.T.);
#39=EDGE_LOOP('',(#150,#151,#152,#153,#154,#155,#156));
#40=EDGE_LOOP('',(#157,#158,#159,#160,#161,#162));
#41=EDGE_LOOP('',(#163,#164));
#42=EDGE_LOOP('',(#165,#166));
#43=EDGE_LOOP('',(#167,#168,#169,#170,#171,#172));
#44=EDGE_LOOP('',(#173,#174,#175,#176,#177,#178));
#45=EDGE_LOOP('',(#179,#180,#181,#182,#183,#184));
#46=EDGE_LOOP('',(#185,#186,#187,#188,#189,#190));
#47=EDGE_LOOP('',(#191,#192,#193,#194,#195,#196,#197));
#48=EDGE_LOOP('',(#198,#199,#200,#201,#202,#203));
#49=EDGE_LOOP('',(#204,#205,#206,#207,#208));
#50=EDGE_LOOP('',(#209,#210,#211,#212,#213));
#51=EDGE_LOOP('',(#214));
#52=EDGE_LOOP('',(#215));
#53=LINE('',#372,#61);
#54=LINE('',#383,#62);
#55=LINE('',#391,#63);
#56=LINE('',#397,#64);
#57=LINE('',#405,#65);
#58=LINE('',#415,#66);
#59=LINE('',#428,#67);
#60=LINE('',#432,#68);
#61=VECTOR('',#289,1.5);
#62=VECTOR('',#302,1.75);
#63=VECTOR('',#311,1.25);
#64=VECTOR('',#318,1.);
#65=VECTOR('',#327,0.75);
#66=VECTOR('',#340,1.25);
#67=VECTOR('',#357,0.75);
#68=VECTOR('',#362,1.25);
#69=CIRCLE('',#245,1.75);
#70=CIRCLE('',#246,1.75);
#71=CIRCLE('',#247,1.25);
#72=CIRCLE('',#248,1.25);
#73=CIRCLE('',#249,1.25);
#74=CIRCLE('',#251,1.75);
#75=CIRCLE('',#252,1.75);
#76=CIRCLE('',#254,1.25);
#77=CIRCLE('',#255,1.25);
#78=CIRCLE('',#257,1.25);
#79=CIRCLE('',#258,1.25);
#80=CIRCLE('',#260,0.75);
#81=CIRCLE('',#261,0.75);
#82=CIRCLE('',#263,0.75);
#83=CIRCLE('',#264,0.75);
#84=CIRCLE('',#266,0.75);
#85=CIRCLE('',#267,0.75);
#86=CIRCLE('',#268,1.75);
#87=CIRCLE('',#270,1.25);
#88=CIRCLE('',#271,1.25);
#89=CIRCLE('',#273,1.25);
#90=CIRCLE('',#274,1.25);
#91=CIRCLE('',#275,1.25);
#92=CIRCLE('',#277,0.75);
#93=CIRCLE('',#279,1.25);
#94=VERTEX_POINT('',#367);
#95=VERTEX_POINT('',#368);
#96=VERTEX_POINT('',#371);
#97=VERTEX_POINT('',#373);
#98=VERTEX_POINT('',#375);
#99=VERTEX_POINT('',#379);
#100=VERTEX_POINT('',#380);
#101=VERTEX_POINT('',#385);
#102=VERTEX_POINT('',#386);
#103=VERTEX_POINT('',#390);
#104=VERTEX_POINT('',#392);
#105=VERTEX_POINT('',#396);
#106=VERTEX_POINT('',#398);
#107=VERTEX_POINT('',#402);
#108=VERTEX_POINT('',#403);
#109=VERTEX_POINT('',#408);
#110=VERTEX_POINT('',#409);
#111=VERTEX_POINT('',#414);
#112=VERTEX_POINT('',#416);
#113=VERTEX_POINT('',#420);
#114=VERTEX_POINT('',#422);
#115=VERTEX_POINT('',#426);
#116=VERTEX_POINT('',#430);
#117=EDGE_CURVE('',#94,#95,#69,.T.);
#118=EDGE_CURVE('',#95,#94,#70,.T.);
#119=EDGE_CURVE('',#95,#96,#53,.T.);
#120=EDGE_CURVE('',#96,#97,#71,.T.);
#121=EDGE_CURVE('',#97,#98,#72,.T.);
#122=EDGE_CURVE('',#98,#96,#73,.T.);
#123=EDGE_CURVE('',#99,#100,#74,.T.);
#124=EDGE_CURVE('',#100,#99,#75,.T.);
#125=EDGE_CURVE('',#100,#95,#54,.T.);
#126=EDGE_CURVE('',#101,#102,#76,.T.);
#127=EDGE_CURVE('',#102,#101,#77,.T.);
#128=EDGE_CURVE('',#102,#103,#55,.T.);
#129=EDGE_CURVE('',#104,#103,#78,.T.);
#130=EDGE_CURVE('',#103,#104,#79,.T.);
#131=EDGE_CURVE('',#103,#105,#56,.T.);
#132=EDGE_CURVE('',#105,#106,#80,.T.);
#133=EDGE_CURVE('',#106,#105,#81,.T.);
#134=EDGE_CURVE('',#107,#108,#82,.T.);
#135=EDGE_CURVE('',#107,#106,#57,.T.);
#136=EDGE_CURVE('',#108,#107,#83,.T.);
#137=EDGE_CURVE('',#109,#110,#84,.T.);
#138=EDGE_CURVE('',#110,#109,#85,.T.);
#139=EDGE_CURVE('',#110,#108,#86,.T.);
#140=EDGE_CURVE('',#97,#111,#58,.T.);
#141=EDGE_CURVE('',#111,#112,#87,.T.);
#142=EDGE_CURVE('',#112,#111,#88,.T.);
#143=EDGE_CURVE('',#112,#113,#89,.T.);
#144=EDGE_CURVE('',#114,#113,#90,.T.);
#145=EDGE_CURVE('',#113,#114,#91,.T.);
#146=EDGE_CURVE('',#115,#115,#92,.T.);
#147=EDGE_CURVE('',#115,#109,#59,.T.);
#148=EDGE_CURVE('',#116,#116,#93,.T.);
#149=EDGE_CURVE('',#116,#114,#60,.T.);
#150=ORIENTED_EDGE('',*,*,#117,.F.);
#151=ORIENTED_EDGE('',*,*,#118,.F.);
#152=ORIENTED_EDGE('',*,*,#119,.T.);
#153=ORIENTED_EDGE('',*,*,#120,.T.);
#154=ORIENTED_EDGE('',*,*,#121,.T.);
#155=ORIENTED_EDGE('',*,*,#122,.T.);
#156=ORIENTED_EDGE('',*,*,#119,.F.);
#157=ORIENTED_EDGE('',*,*,#123,.F.);
#158=ORIENTED_EDGE('',*,*,#124,.F.);
#159=ORIENTED_EDGE('',*,*,#125,.T.);
#160=ORIENTED_EDGE('',*,*,#118,.T.);
#161=ORIENTED_EDGE('',*,*,#117,.T.);
#162=ORIENTED_EDGE('',*,*,#125,.F.);
#163=ORIENTED_EDGE('',*,*,#123,.T.);
#164=ORIENTED_EDGE('',*,*,#124,.T.);
#165=ORIENTED_EDGE('',*,*,#126,.F.);
#166=ORIENTED_EDGE('',*,*,#127,.F.);
#167=ORIENTED_EDGE('',*,*,#126,.T.);
#168=ORIENTED_EDGE('',*,*,#128,.T.);
#169=ORIENTED_EDGE('',*,*,#129,.F.);
#170=ORIENTED_EDGE('',*,*,#130,.F.);
#171=ORIENTED_EDGE('',*,*,#128,.F.);
#172=ORIENTED_EDGE('',*,*,#127,.T.);
#173=ORIENTED_EDGE('',*,*,#129,.T.);
#174=ORIENTED_EDGE('',*,*,#131,.T.);
#175=ORIENTED_EDGE('',*,*,#132,.T.);
#176=ORIENTED_EDGE('',*,*,#133,.T.);
#177=ORIENTED_EDGE('',*,*,#131,.F.);
#178=ORIENTED_EDGE('',*,*,#130,.T.);
#179=ORIENTED_EDGE('',*,*,#134,.F.);
#180=ORIENTED_EDGE('',*,*,#135,.T.);
#181=ORIENTED_EDGE('',*,*,#132,.F.);
#182=ORIENTED_EDGE('',*,*,#133,.F.);
#183=ORIENTED_EDGE('',*,*,#135,.F.);
#184=ORIENTED_EDGE('',*,*,#136,.F.);
#185=ORIENTED_EDGE('',*,*,#137,.F.);
#186=ORIENTED_EDGE('',*,*,#138,.F.);
#187=ORIENTED_EDGE('',*,*,#139,.T.);
#188=ORIENTED_EDGE('',*,*,#136,.T.);
#189=ORIENTED_EDGE('',*,*,#134,.T.);
#190=ORIENTED_EDGE('',*,*,#139,.F.);
#191=ORIENTED_EDGE('',*,*,#122,.F.);
#192=ORIENTED_EDGE('',*,*,#121,.F.);
#193=ORIENTED_EDGE('',*,*,#140,.T.);
#194=ORIENTED_EDGE('',*,*,#141,.T.);
#195=ORIENTED_EDGE('',*,*,#142,.T.);
#196=ORIENTED_EDGE('',*,*,#140,.F.);
#197=ORIENTED_EDGE('',*,*,#120,.F.);
#198=ORIENTED_EDGE('',*,*,#141,.F.);
#199=ORIENTED_EDGE('',*,*,#142,.F.);
#200=ORIENTED_EDGE('',*,*,#143,.T.);
#201=ORIENTED_EDGE('',*,*,#144,.F.);
#202=ORIENTED_EDGE('',*,*,#145,.F.);
#203=ORIENTED_EDGE('',*,*,#143,.F.);
#204=ORIENTED_EDGE('',*,*,#146,.F.);
#205=ORIENTED_EDGE('',*,*,#147,.T.);
#206=ORIENTED_EDGE('',*,*,#137,.T.);
#207=ORIENTED_EDGE('',*,*,#138,.T.);
#208=ORIENTED_EDGE('',*,*,#147,.F.);
#209=ORIENTED_EDGE('',*,*,#148,.F.);
#210=ORIENTED_EDGE('',*,*,#149,.T.);
#211=ORIENTED_EDGE('',*,*,#144,.T.);
#212=ORIENTED_EDGE('',*,*,#145,.T.);
#213=ORIENTED_EDGE('',*,*,#149,.F.);
#214=ORIENTED_EDGE('',*,*,#148,.T.);
#215=ORIENTED_EDGE('',*,*,#146,.T.);
#216=CONICAL_SURFACE('',#244,1.5,0.244978663126861);
#217=CONICAL_SURFACE('',#259,1.,0.244978663126861);
#218=ADVANCED_FACE('',(#27),#216,.T.);
#219=ADVANCED_FACE('',(#28),#21,.T.);
#220=ADVANCED_FACE('',(#29,#17),#19,.T.);
#221=ADVANCED_FACE('',(#30),#22,.F.);
#222=ADVANCED_FACE('',(#31),#217,.F.);
#223=ADVANCED_FACE('',(#32),#23,.F.);
#224=ADVANCED_FACE('',(#33),#15,.F.);
#225=ADVANCED_FACE('',(#34),#24,.T.);
#226=ADVANCED_FACE('',(#35),#16,.T.);
#227=ADVANCED_FACE('',(#36),#25,.F.);
#228=ADVANCED_FACE('',(#37),#26,.T.);
#229=ADVANCED_FACE('',(#38,#18),#20,.T.);
#230=CLOSED_SHELL('',(#218,#219,#220,#221,#222,#223,#224,#225,#226,#227,
#228,#229));
#231=DERIVED_UNIT_ELEMENT(#233,1.);
#232=DERIVED_UNIT_ELEMENT(#439,3.);
#233=(
MASS_UNIT()
NAMED_UNIT(*)
SI_UNIT(.KILO.,.GRAM.)
);
#234=DERIVED_UNIT((#231,#232));
#235=MEASURE_REPRESENTATION_ITEM('density measure',
POSITIVE_RATIO_MEASURE(7850.),#234);
#236=PROPERTY_DEFINITION_REPRESENTATION(#241,#238);
#237=PROPERTY_DEFINITION_REPRESENTATION(#242,#239);
#238=REPRESENTATION('material name',(#240),#436);
#239=REPRESENTATION('density',(#235),#436);
#240=DESCRIPTIVE_REPRESENTATION_ITEM('Steel','Steel');
#241=PROPERTY_DEFINITION('material property','material name',#446);
#242=PROPERTY_DEFINITION('material property','density of part',#446);
#243=AXIS2_PLACEMENT_3D('placement',#365,#281,#282);
#244=AXIS2_PLACEMENT_3D('',#366,#283,#284);
#245=AXIS2_PLACEMENT_3D('',#369,#285,#286);
#246=AXIS2_PLACEMENT_3D('',#370,#287,#288);
#247=AXIS2_PLACEMENT_3D('',#374,#290,#291);
#248=AXIS2_PLACEMENT_3D('',#376,#292,#293);
#249=AXIS2_PLACEMENT_3D('',#377,#294,#295);
#250=AXIS2_PLACEMENT_3D('',#378,#296,#297);
#251=AXIS2_PLACEMENT_3D('',#381,#298,#299);
#252=AXIS2_PLACEMENT_3D('',#382,#300,#301);
#253=AXIS2_PLACEMENT_3D('',#384,#303,#304);
#254=AXIS2_PLACEMENT_3D('',#387,#305,#306);
#255=AXIS2_PLACEMENT_3D('',#388,#307,#308);
#256=AXIS2_PLACEMENT_3D('',#389,#309,#310);
#257=AXIS2_PLACEMENT_3D('',#393,#312,#313);
#258=AXIS2_PLACEMENT_3D('',#394,#314,#315);
#259=AXIS2_PLACEMENT_3D('',#395,#316,#317);
#260=AXIS2_PLACEMENT_3D('',#399,#319,#320);
#261=AXIS2_PLACEMENT_3D('',#400,#321,#322);
#262=AXIS2_PLACEMENT_3D('',#401,#323,#324);
#263=AXIS2_PLACEMENT_3D('',#404,#325,#326);
#264=AXIS2_PLACEMENT_3D('',#406,#328,#329);
#265=AXIS2_PLACEMENT_3D('',#407,#330,#331);
#266=AXIS2_PLACEMENT_3D('',#410,#332,#333);
#267=AXIS2_PLACEMENT_3D('',#411,#334,#335);
#268=AXIS2_PLACEMENT_3D('',#412,#336,#337);
#269=AXIS2_PLACEMENT_3D('',#413,#338,#339);
#270=AXIS2_PLACEMENT_3D('',#417,#341,#342);
#271=AXIS2_PLACEMENT_3D('',#418,#343,#344);
#272=AXIS2_PLACEMENT_3D('',#419,#345,#346);
#273=AXIS2_PLACEMENT_3D('',#421,#347,#348);
#274=AXIS2_PLACEMENT_3D('',#423,#349,#350);
#275=AXIS2_PLACEMENT_3D('',#424,#351,#352);
#276=AXIS2_PLACEMENT_3D('',#425,#353,#354);
#277=AXIS2_PLACEMENT_3D('',#427,#355,#356);
#278=AXIS2_PLACEMENT_3D('',#429,#358,#359);
#279=AXIS2_PLACEMENT_3D('',#431,#360,#361);
#280=AXIS2_PLACEMENT_3D('',#433,#363,#364);
#281=DIRECTION('axis',(0.,0.,1.));
#282=DIRECTION('refdir',(1.,0.,0.));
#283=DIRECTION('center_axis',(0.,0.,1.));
#284=DIRECTION('ref_axis',(1.,0.,0.));
#285=DIRECTION('center_axis',(0.,0.,1.));
#286=DIRECTION('ref_axis',(1.,0.,0.));
#287=DIRECTION('center_axis',(0.,0.,1.));
#288=DIRECTION('ref_axis',(1.,0.,0.));
#289=DIRECTION('',(0.24253562503633,2.97020476879944E-17,-0.970142500145333));
#290=DIRECTION('center_axis',(-6.12323399573677E-17,0.,1.));
#291=DIRECTION('ref_axis',(0.,1.,0.));
#292=DIRECTION('center_axis',(-6.12323399573677E-17,0.,1.));
#293=DIRECTION('ref_axis',(0.,1.,0.));
#294=DIRECTION('center_axis',(-6.12323399573677E-17,0.,1.));
#295=DIRECTION('ref_axis',(0.,1.,0.));
#296=DIRECTION('center_axis',(0.,0.,1.));
#297=DIRECTION('ref_axis',(1.,0.,0.));
#298=DIRECTION('center_axis',(0.,0.,1.));
#299=DIRECTION('ref_axis',(1.,0.,0.));
#300=DIRECTION('center_axis',(0.,0.,1.));
#301=DIRECTION('ref_axis',(1.,0.,0.));
#302=DIRECTION('',(0.,0.,-1.));
#303=DIRECTION('center_axis',(0.,0.,1.));
#304=DIRECTION('ref_axis',(1.,0.,0.));
#305=DIRECTION('center_axis',(0.,0.,1.));
#306=DIRECTION('ref_axis',(1.,0.,0.));
#307=DIRECTION('center_axis',(0.,0.,1.));
#308=DIRECTION('ref_axis',(1.,0.,0.));
#309=DIRECTION('center_axis',(0.,0.,1.));
#310=DIRECTION('ref_axis',(1.,0.,0.));
#311=DIRECTION('',(0.,0.,-1.));
#312=DIRECTION('center_axis',(0.,0.,1.));
#313=DIRECTION('ref_axis',(1.,0.,0.));
#314=DIRECTION('center_axis',(0.,0.,1.));
#315=DIRECTION('ref_axis',(1.,0.,0.));
#316=DIRECTION('center_axis',(0.,0.,1.));
#317=DIRECTION('ref_axis',(1.,0.,0.));
#318=DIRECTION('',(0.24253562503633,2.97020476879944E-17,-0.970142500145333));
#319=DIRECTION('center_axis',(6.12323399573677E-17,0.,-1.));
#320=DIRECTION('ref_axis',(0.,1.,0.));
#321=DIRECTION('center_axis',(6.12323399573677E-17,0.,-1.));
#322=DIRECTION('ref_axis',(0.,1.,0.));
#323=DIRECTION('center_axis',(0.,0.,1.));
#324=DIRECTION('ref_axis',(0.,1.,0.));
#325=DIRECTION('center_axis',(-6.12323399573677E-17,0.,1.));
#326=DIRECTION('ref_axis',(0.,1.,0.));
#327=DIRECTION('',(0.,0.,1.));
#328=DIRECTION('center_axis',(-6.12323399573677E-17,0.,1.));
#329=DIRECTION('ref_axis',(0.,1.,0.));
#330=DIRECTION('center_axis',(0.,1.,0.));
#331=DIRECTION('ref_axis',(0.,0.,1.));
#332=DIRECTION('center_axis',(-1.,0.,0.));
#333=DIRECTION('ref_axis',(0.,1.,0.));
#334=DIRECTION('center_axis',(-1.,0.,0.));
#335=DIRECTION('ref_axis',(0.,1.,0.));
#336=DIRECTION('center_axis',(0.,1.,0.));
#337=DIRECTION('ref_axis',(0.,0.,1.));
#338=DIRECTION('center_axis',(0.,0.,1.));
#339=DIRECTION('ref_axis',(0.,1.,0.));
#340=DIRECTION('',(0.,0.,-1.));
#341=DIRECTION('center_axis',(-6.12323399573677E-17,0.,1.));
#342=DIRECTION('ref_axis',(0.,1.,0.));
#343=DIRECTION('center_axis',(-6.12323399573677E-17,0.,1.));
#344=DIRECTION('ref_axis',(0.,1.,0.));
#345=DIRECTION('center_axis',(0.,1.,0.));
#346=DIRECTION('ref_axis',(0.,0.,1.));
#347=DIRECTION('center_axis',(0.,-1.,0.));
#348=DIRECTION('ref_axis',(0.,0.,1.));
#349=DIRECTION('center_axis',(1.,0.,0.));
#350=DIRECTION('ref_axis',(0.,1.,0.));
#351=DIRECTION('center_axis',(1.,0.,0.));
#352=DIRECTION('ref_axis',(0.,1.,0.));
#353=DIRECTION('center_axis',(1.,0.,0.));
#354=DIRECTION('ref_axis',(0.,1.,0.));
#355=DIRECTION('center_axis',(-1.,0.,0.));
#356=DIRECTION('ref_axis',(0.,1.,0.));
#357=DIRECTION('',(-1.,0.,0.));
#358=DIRECTION('center_axis',(1.,0.,0.));
#359=DIRECTION('ref_axis',(0.,1.,0.));
#360=DIRECTION('center_axis',(1.,0.,0.));
#361=DIRECTION('ref_axis',(0.,1.,0.));
#362=DIRECTION('',(-1.,0.,0.));
#363=DIRECTION('center_axis',(1.,0.,0.));
#364=DIRECTION('ref_axis',(0.,1.,0.));
#365=CARTESIAN_POINT('',(0.,0.,0.));
#366=CARTESIAN_POINT('Origin',(-2.5,0.,18.5));
#367=CARTESIAN_POINT('',(-0.749999999999996,0.,19.5));
#368=CARTESIAN_POINT('',(-4.25,-2.14313189850787E-16,19.5));
#369=CARTESIAN_POINT('Origin',(-2.5,0.,19.5));
#370=CARTESIAN_POINT('Origin',(-2.5,0.,19.5));
#371=CARTESIAN_POINT('',(-3.75,-1.53080849893419E-16,17.5));
#372=CARTESIAN_POINT('',(-4.,-1.83697019872103E-16,18.5));
#373=CARTESIAN_POINT('',(-2.5,-1.25,17.5));
#374=CARTESIAN_POINT('Origin',(-2.5,0.,17.5));
#375=CARTESIAN_POINT('',(-1.25,0.,17.5));
#376=CARTESIAN_POINT('Origin',(-2.5,0.,17.5));
#377=CARTESIAN_POINT('Origin',(-2.5,0.,17.5));
#378=CARTESIAN_POINT('Origin',(-2.5,0.,22.));
#379=CARTESIAN_POINT('',(-0.749999999999996,0.,24.5));
#380=CARTESIAN_POINT('',(-4.25,-2.14313189850787E-16,24.5));
#381=CARTESIAN_POINT('Origin',(-2.5,0.,24.5));
#382=CARTESIAN_POINT('Origin',(-2.5,0.,24.5));
#383=CARTESIAN_POINT('',(-4.25,-2.14313189850787E-16,22.));
#384=CARTESIAN_POINT('Origin',(-1.25,0.,24.5));
#385=CARTESIAN_POINT('',(-1.25,0.,24.5));
#386=CARTESIAN_POINT('',(-3.75,-1.53080849893419E-16,24.5));
#387=CARTESIAN_POINT('Origin',(-2.5,0.,24.5));
#388=CARTESIAN_POINT('Origin',(-2.5,0.,24.5));
#389=CARTESIAN_POINT('Origin',(-2.5,0.,22.));
#390=CARTESIAN_POINT('',(-3.75,-1.53080849893419E-16,19.5));
#391=CARTESIAN_POINT('',(-3.75,-1.53080849893419E-16,22.));
#392=CARTESIAN_POINT('',(-1.25,0.,19.5));
#393=CARTESIAN_POINT('Origin',(-2.5,0.,19.5));
#394=CARTESIAN_POINT('Origin',(-2.5,0.,19.5));
#395=CARTESIAN_POINT('Origin',(-2.5,0.,18.5));
#396=CARTESIAN_POINT('',(-3.25,-9.18485099360515E-17,17.5));
#397=CARTESIAN_POINT('',(-3.5,-1.22464679914735E-16,18.5));
#398=CARTESIAN_POINT('',(-2.5,-0.75,17.5));
#399=CARTESIAN_POINT('Origin',(-2.5,0.,17.5));
#400=CARTESIAN_POINT('Origin',(-2.5,0.,17.5));
#401=CARTESIAN_POINT('Origin',(-2.5,0.,2.5));
#402=CARTESIAN_POINT('',(-2.5,-0.75,2.5));
#403=CARTESIAN_POINT('',(-1.75,-9.18485099360515E-17,2.5));
#404=CARTESIAN_POINT('Origin',(-2.5,0.,2.5));
#405=CARTESIAN_POINT('',(-2.5,-0.75,2.5));
#406=CARTESIAN_POINT('Origin',(-2.5,0.,2.5));
#407=CARTESIAN_POINT('Origin',(1.53080850369291E-16,0.,2.5));
#408=CARTESIAN_POINT('',(0.,-0.75,-9.18485099360515E-17));
#409=CARTESIAN_POINT('',(0.,-9.18485099360515E-17,0.75));
#410=CARTESIAN_POINT('Origin',(0.,0.,0.));
#411=CARTESIAN_POINT('Origin',(0.,0.,0.));
#412=CARTESIAN_POINT('Origin',(1.53080850369291E-16,-9.18485099360515E-17,
2.5));
#413=CARTESIAN_POINT('Origin',(-2.5,0.,2.5));
#414=CARTESIAN_POINT('',(-2.5,-1.25,2.5));
#415=CARTESIAN_POINT('',(-2.5,-1.25,2.5));
#416=CARTESIAN_POINT('',(-1.25,-1.53080849893419E-16,2.5));
#417=CARTESIAN_POINT('Origin',(-2.5,0.,2.5));
#418=CARTESIAN_POINT('Origin',(-2.5,0.,2.5));
#419=CARTESIAN_POINT('Origin',(1.53080850369291E-16,0.,2.5));
#420=CARTESIAN_POINT('',(0.,-1.53080849893419E-16,1.25));
#421=CARTESIAN_POINT('Origin',(1.53080850369291E-16,-1.53080849893419E-16,
2.5));
#422=CARTESIAN_POINT('',(0.,-1.25,-1.53080849893419E-16));
#423=CARTESIAN_POINT('Origin',(0.,0.,0.));
#424=CARTESIAN_POINT('Origin',(0.,0.,0.));
#425=CARTESIAN_POINT('Origin',(0.,0.,0.));
#426=CARTESIAN_POINT('',(4.,-0.75,-9.18485099360515E-17));
#427=CARTESIAN_POINT('Origin',(4.,0.,0.));
#428=CARTESIAN_POINT('',(0.,-0.75,-9.18485099360515E-17));
#429=CARTESIAN_POINT('Origin',(0.,0.,0.));
#430=CARTESIAN_POINT('',(4.,-1.25,-1.53080849893419E-16));
#431=CARTESIAN_POINT('Origin',(4.,0.,0.));
#432=CARTESIAN_POINT('',(0.,-1.25,-1.53080849893419E-16));
#433=CARTESIAN_POINT('Origin',(4.,0.,0.));
#434=UNCERTAINTY_MEASURE_WITH_UNIT(LENGTH_MEASURE(0.01),#438,
'DISTANCE_ACCURACY_VALUE',
'Maximum model space distance between geometric entities at asserted c
onnectivities');
#435=UNCERTAINTY_MEASURE_WITH_UNIT(LENGTH_MEASURE(0.01),#438,
'DISTANCE_ACCURACY_VALUE',
'Maximum model space distance between geometric entities at asserted c
onnectivities');
#436=(
GEOMETRIC_REPRESENTATION_CONTEXT(3)
GLOBAL_UNCERTAINTY_ASSIGNED_CONTEXT((#434))
GLOBAL_UNIT_ASSIGNED_CONTEXT((#438,#440,#441))
REPRESENTATION_CONTEXT('','3D')
);
#437=(
GEOMETRIC_REPRESENTATION_CONTEXT(3)
GLOBAL_UNCERTAINTY_ASSIGNED_CONTEXT((#435))
GLOBAL_UNIT_ASSIGNED_CONTEXT((#438,#440,#441))
REPRESENTATION_CONTEXT('','3D')
);
#438=(
LENGTH_UNIT()
NAMED_UNIT(*)
SI_UNIT(.MILLI.,.METRE.)
);
#439=(
LENGTH_UNIT()
NAMED_UNIT(*)
SI_UNIT($,.METRE.)
);
#440=(
NAMED_UNIT(*)
PLANE_ANGLE_UNIT()
SI_UNIT($,.RADIAN.)
);
#441=(
NAMED_UNIT(*)
SI_UNIT($,.STERADIAN.)
SOLID_ANGLE_UNIT()
);
#442=SHAPE_DEFINITION_REPRESENTATION(#443,#444);
#443=PRODUCT_DEFINITION_SHAPE('',$,#446);
#444=SHAPE_REPRESENTATION('',(#243),#436);
#445=PRODUCT_DEFINITION_CONTEXT('part definition',#450,'design');
#446=PRODUCT_DEFINITION('FusionComponent','FusionComponent',#447,#445);
#447=PRODUCT_DEFINITION_FORMATION('',$,#452);
#448=PRODUCT_RELATED_PRODUCT_CATEGORY('FusionComponent',
'FusionComponent',(#452));
#449=APPLICATION_PROTOCOL_DEFINITION('international standard',
'automotive_design',2009,#450);
#450=APPLICATION_CONTEXT(
'Core Data for Automotive Mechanical Design Process');
#451=PRODUCT_CONTEXT('part definition',#450,'mechanical');
#452=PRODUCT('FusionComponent','FusionComponent',$,(#451));
#453=PRESENTATION_STYLE_ASSIGNMENT((#455));
#454=PRESENTATION_STYLE_ASSIGNMENT((#456));
#455=SURFACE_STYLE_USAGE(.BOTH.,#457);
#456=SURFACE_STYLE_USAGE(.BOTH.,#458);
#457=SURFACE_SIDE_STYLE('',(#459));
#458=SURFACE_SIDE_STYLE('',(#460));
#459=SURFACE_STYLE_FILL_AREA(#461);
#460=SURFACE_STYLE_FILL_AREA(#462);
#461=FILL_AREA_STYLE('Steel - Satin',(#463));
#462=FILL_AREA_STYLE('Stainless Steel - Satin',(#464));
#463=FILL_AREA_STYLE_COLOUR('Steel - Satin',#465);
#464=FILL_AREA_STYLE_COLOUR('Stainless Steel - Satin',#466);
#465=COLOUR_RGB('Steel - Satin',0.627450980392157,0.627450980392157,0.627450980392157);
#466=COLOUR_RGB('Stainless Steel - Satin',0.796078431372549,0.796078431372549,
0.796078431372549);
ENDSEC;
END-ISO-10303-21;
