ISO-10303-21;
HEADER;
FILE_DESCRIPTION (( 'STEP AP214' ),
    '1' );
FILE_NAME ('S_C_303_SUPPORT.STEP',
    '2020-04-15T07:30:39',
    ( '' ),
    ( '' ),
    'SwSTEP 2.0',
    'SolidWorks 2015',
    '' );
FILE_SCHEMA (( 'AUTOMOTIVE_DESIGN' ));
ENDSEC;

DATA;
#1 =( NAMED_UNIT ( * ) PLANE_ANGLE_UNIT ( ) SI_UNIT ( $, .RADIAN. ) );
#2 = SURFACE_STYLE_USAGE ( .BOTH. , #153 ) ;
#3 = VERTEX_POINT ( 'NONE', #168 ) ;
#4 = MECHANICAL_DESIGN_GEOMETRIC_PRESENTATION_REPRESENTATION (  '', ( #188 ), #45 ) ;
#5 = CARTESIAN_POINT ( 'NONE',  ( 4.250000000000000000, 5.204748896376250700E-016, 36.00000000000000000 ) ) ;
#6 = EDGE_CURVE ( 'NONE', #155, #195, #28, .T. ) ;
#7 = VERTEX_POINT ( 'NONE', #44 ) ;
#8 = CIRCLE ( 'NONE', #156, 11.50000000000000000 ) ;
#9 = MECHANICAL_DESIGN_GEOMETRIC_PRESENTATION_REPRESENTATION (  '', ( #56 ), #59 ) ;
#10 = VECTOR ( 'NONE', #132, 1000.000000000000000 ) ;
#11 =( NAMED_UNIT ( * ) PLANE_ANGLE_UNIT ( ) SI_UNIT ( $, .RADIAN. ) );
#12 = UNCERTAINTY_MEASURE_WITH_UNIT (LENGTH_MEASURE( 1.000000000000000100E-005 ), #128, 'distance_accuracy_value', 'NONE');
#13 = CARTESIAN_POINT ( 'NONE',  ( -11.50000000000000000, 0.0000000000000000000, 36.00000000000000000 ) ) ;
#14 = DIRECTION ( 'NONE',  ( 1.000000000000000000, 0.0000000000000000000, 0.0000000000000000000 ) ) ;
#15 = PRESENTATION_STYLE_ASSIGNMENT (( #2 ) ) ;
#16 = DIRECTION ( 'NONE',  ( 0.0000000000000000000, 0.0000000000000000000, 1.000000000000000000 ) ) ;
#17 = AXIS2_PLACEMENT_3D ( 'NONE', #214, #165, #181 ) ;
#18 = ORIENTED_EDGE ( 'NONE', *, *, #196, .F. ) ;
#19 = ORIENTED_EDGE ( 'NONE', *, *, #21, .F. ) ;
#20 = ORIENTED_EDGE ( 'NONE', *, *, #100, .F. ) ;
#21 = EDGE_CURVE ( 'NONE', #7, #138, #125, .T. ) ;
#22 = VECTOR ( 'NONE', #103, 1000.000000000000000 ) ;
#23 = DIRECTION ( 'NONE',  ( 0.0000000000000000000, 0.0000000000000000000, 1.000000000000000000 ) ) ;
#24 = SHAPE_DEFINITION_REPRESENTATION ( #115, #172 ) ;
#25 =( NAMED_UNIT ( * ) SI_UNIT ( $, .STERADIAN. ) SOLID_ANGLE_UNIT ( ) );
#26 = ADVANCED_FACE ( 'NONE', ( #130, #92 ), #198, .F. ) ;
#27 = EDGE_LOOP ( 'NONE', ( #37, #157, #43, #189 ) ) ;
#28 = LINE ( 'NONE', #13, #10 ) ;
#29 = DIRECTION ( 'NONE',  ( 0.0000000000000000000, 0.0000000000000000000, 1.000000000000000000 ) ) ;
#30 = CARTESIAN_POINT ( 'NONE',  ( 0.0000000000000000000, 0.0000000000000000000, 36.00000000000000000 ) ) ;
#31 = UNCERTAINTY_MEASURE_WITH_UNIT (LENGTH_MEASURE( 1.000000000000000100E-005 ), #126, 'distance_accuracy_value', 'NONE');
#32 = DIRECTION ( 'NONE',  ( 0.0000000000000000000, 0.0000000000000000000, 1.000000000000000000 ) ) ;
#33 = FACE_OUTER_BOUND ( 'NONE', #159, .T. ) ;
#34 = EDGE_CURVE ( 'NONE', #155, #174, #71, .T. ) ;
#35 = EDGE_CURVE ( 'NONE', #114, #3, #190, .T. ) ;
#36 = PRODUCT ( 'S_C_303_SUPPORT', 'S_C_303_SUPPORT', '', ( #97 ) ) ;
#37 = ORIENTED_EDGE ( 'NONE', *, *, #74, .F. ) ;
#38 = VECTOR ( 'NONE', #46, 1000.000000000000000 ) ;
#39 = DIRECTION ( 'NONE',  ( 1.000000000000000000, 0.0000000000000000000, 0.0000000000000000000 ) ) ;
#40 = CARTESIAN_POINT ( 'NONE',  ( 0.0000000000000000000, 0.0000000000000000000, 0.0000000000000000000 ) ) ;
#41 = ADVANCED_FACE ( 'NONE', ( #82 ), #140, .T. ) ;
#42 = DIRECTION ( 'NONE',  ( 0.0000000000000000000, 0.0000000000000000000, 1.000000000000000000 ) ) ;
#43 = ORIENTED_EDGE ( 'NONE', *, *, #6, .T. ) ;
#44 = CARTESIAN_POINT ( 'NONE',  ( -4.250000000000000000, 0.0000000000000000000, 36.00000000000000000 ) ) ;
#45 =( GEOMETRIC_REPRESENTATION_CONTEXT ( 3 ) GLOBAL_UNCERTAINTY_ASSIGNED_CONTEXT ( ( #31 ) ) GLOBAL_UNIT_ASSIGNED_CONTEXT ( ( #126, #11, #25 ) ) REPRESENTATION_CONTEXT ( 'NONE', 'WORKASPACE' ) );
#46 = DIRECTION ( 'NONE',  ( -0.0000000000000000000, -0.0000000000000000000, -1.000000000000000000 ) ) ;
#47 = VECTOR ( 'NONE', #64, 1000.000000000000000 ) ;
#48 = EDGE_CURVE ( 'NONE', #114, #7, #55, .T. ) ;
#49 = EDGE_CURVE ( 'NONE', #174, #155, #123, .T. ) ;
#50 = UNCERTAINTY_MEASURE_WITH_UNIT (LENGTH_MEASURE( 1.000000000000000100E-005 ), #65, 'distance_accuracy_value', 'NONE');
#51 = DIRECTION ( 'NONE',  ( 0.0000000000000000000, 0.0000000000000000000, 1.000000000000000000 ) ) ;
#52 = DIRECTION ( 'NONE',  ( 1.000000000000000000, 0.0000000000000000000, 0.0000000000000000000 ) ) ;
#53 = DIRECTION ( 'NONE',  ( 1.000000000000000000, 0.0000000000000000000, 0.0000000000000000000 ) ) ;
#54 = CIRCLE ( 'NONE', #203, 11.50000000000000000 ) ;
#55 = CIRCLE ( 'NONE', #166, 4.250000000000000000 ) ;
#56 = STYLED_ITEM ( 'NONE', ( #15 ), #109 ) ;
#57 = AXIS2_PLACEMENT_3D ( 'NONE', #150, #101, #185 ) ;
#58 = CARTESIAN_POINT ( 'NONE',  ( 0.0000000000000000000, 0.0000000000000000000, 0.0000000000000000000 ) ) ;
#59 =( GEOMETRIC_REPRESENTATION_CONTEXT ( 3 ) GLOBAL_UNCERTAINTY_ASSIGNED_CONTEXT ( ( #50 ) ) GLOBAL_UNIT_ASSIGNED_CONTEXT ( ( #65, #1, #169 ) ) REPRESENTATION_CONTEXT ( 'NONE', 'WORKASPACE' ) );
#60 = CARTESIAN_POINT ( 'NONE',  ( 0.0000000000000000000, 0.0000000000000000000, 36.00000000000000000 ) ) ;
#61 = ORIENTED_EDGE ( 'NONE', *, *, #91, .T. ) ;
#62 = CARTESIAN_POINT ( 'NONE',  ( 0.0000000000000000000, 0.0000000000000000000, 36.00000000000000000 ) ) ;
#63 = ORIENTED_EDGE ( 'NONE', *, *, #35, .T. ) ;
#64 = DIRECTION ( 'NONE',  ( -0.0000000000000000000, -0.0000000000000000000, -1.000000000000000000 ) ) ;
#65 =( LENGTH_UNIT ( ) NAMED_UNIT ( * ) SI_UNIT ( .MILLI., .METRE. ) );
#66 = CARTESIAN_POINT ( 'NONE',  ( -4.250000000000000000, 0.0000000000000000000, 0.0000000000000000000 ) ) ;
#67 = DIRECTION ( 'NONE',  ( -1.000000000000000000, 0.0000000000000000000, 0.0000000000000000000 ) ) ;
#68 = PRODUCT_DEFINITION_FORMATION_WITH_SPECIFIED_SOURCE ( 'ANY', '', #36, .NOT_KNOWN. ) ;
#69 = PRESENTATION_STYLE_ASSIGNMENT (( #143 ) ) ;
#70 = VERTEX_POINT ( 'NONE', #183 ) ;
#71 = CIRCLE ( 'NONE', #72, 11.50000000000000000 ) ;
#72 = AXIS2_PLACEMENT_3D ( 'NONE', #62, #29, #184 ) ;
#73 = ORIENTED_EDGE ( 'NONE', *, *, #74, .T. ) ;
#74 = EDGE_CURVE ( 'NONE', #174, #70, #161, .T. ) ;
#75 = ORIENTED_EDGE ( 'NONE', *, *, #6, .F. ) ;
#76 = CARTESIAN_POINT ( 'NONE',  ( 0.0000000000000000000, 0.0000000000000000000, 0.0000000000000000000 ) ) ;
#77 = ADVANCED_FACE ( 'NONE', ( #33 ), #210, .F. ) ;
#78 =( NAMED_UNIT ( * ) PLANE_ANGLE_UNIT ( ) SI_UNIT ( $, .RADIAN. ) );
#79 = SURFACE_STYLE_FILL_AREA ( #111 ) ;
#80 = DIRECTION ( 'NONE',  ( 0.0000000000000000000, 0.0000000000000000000, 1.000000000000000000 ) ) ;
#81 = DIRECTION ( 'NONE',  ( 1.000000000000000000, 0.0000000000000000000, 0.0000000000000000000 ) ) ;
#82 = FACE_OUTER_BOUND ( 'NONE', #27, .T. ) ;
#83 = CARTESIAN_POINT ( 'NONE',  ( 0.0000000000000000000, 0.0000000000000000000, 36.00000000000000000 ) ) ;
#84 = AXIS2_PLACEMENT_3D ( 'NONE', #30, #51, #14 ) ;
#85 = DIRECTION ( 'NONE',  ( -1.000000000000000000, 0.0000000000000000000, 0.0000000000000000000 ) ) ;
#86 = DIRECTION ( 'NONE',  ( -0.0000000000000000000, -0.0000000000000000000, -1.000000000000000000 ) ) ;
#87 = CIRCLE ( 'NONE', #84, 4.250000000000000000 ) ;
#88 = PRODUCT_DEFINITION_CONTEXT ( 'detailed design', #95, 'design' ) ;
#89 = CARTESIAN_POINT ( 'NONE',  ( -11.50000000000000000, 0.0000000000000000000, 36.00000000000000000 ) ) ;
#90 = ORIENTED_EDGE ( 'NONE', *, *, #179, .F. ) ;
#91 = EDGE_CURVE ( 'NONE', #7, #114, #87, .T. ) ;
#92 = FACE_BOUND ( 'NONE', #121, .T. ) ;
#93 = ORIENTED_EDGE ( 'NONE', *, *, #35, .F. ) ;
#94 = ORIENTED_EDGE ( 'NONE', *, *, #34, .T. ) ;
#95 = APPLICATION_CONTEXT ( 'automotive_design' ) ;
#96 = DIRECTION ( 'NONE',  ( 1.000000000000000000, 0.0000000000000000000, 0.0000000000000000000 ) ) ;
#97 = PRODUCT_CONTEXT ( 'NONE', #178, 'mechanical' ) ;
#98 = DIRECTION ( 'NONE',  ( 1.000000000000000000, 0.0000000000000000000, 0.0000000000000000000 ) ) ;
#99 = ORIENTED_EDGE ( 'NONE', *, *, #196, .T. ) ;
#100 = EDGE_CURVE ( 'NONE', #195, #70, #54, .T. ) ;
#101 = DIRECTION ( 'NONE',  ( -0.0000000000000000000, -0.0000000000000000000, -1.000000000000000000 ) ) ;
#102 = FILL_AREA_STYLE_COLOUR ( '', #154 ) ;
#103 = DIRECTION ( 'NONE',  ( -0.0000000000000000000, -0.0000000000000000000, -1.000000000000000000 ) ) ;
#104 = FACE_BOUND ( 'NONE', #186, .T. ) ;
#105 = PRODUCT_RELATED_PRODUCT_CATEGORY ( 'part', '', ( #36 ) ) ;
#106 = COLOUR_RGB ( '',0.7921568627450980000, 0.8196078431372548800, 0.9333333333333333500 ) ;
#107 = ORIENTED_EDGE ( 'NONE', *, *, #49, .T. ) ;
#108 = EDGE_LOOP ( 'NONE', ( #20, #90 ) ) ;
#109 = MANIFOLD_SOLID_BREP ( 'Boss.-Extru.1', #135 ) ;
#110 = DIRECTION ( 'NONE',  ( 1.000000000000000000, 0.0000000000000000000, -0.0000000000000000000 ) ) ;
#111 = FILL_AREA_STYLE ('',( #162 ) ) ;
#112 = DIRECTION ( 'NONE',  ( 0.0000000000000000000, 0.0000000000000000000, 1.000000000000000000 ) ) ;
#113 = AXIS2_PLACEMENT_3D ( 'NONE', #191, #142, #110 ) ;
#114 = VERTEX_POINT ( 'NONE', #5 ) ;
#115 = PRODUCT_DEFINITION_SHAPE ( 'NONE', 'NONE',  #182 ) ;
#116 = FILL_AREA_STYLE ('',( #102 ) ) ;
#117 = DIRECTION ( 'NONE',  ( -0.0000000000000000000, -0.0000000000000000000, -1.000000000000000000 ) ) ;
#118 = FACE_OUTER_BOUND ( 'NONE', #124, .T. ) ;
#119 = CARTESIAN_POINT ( 'NONE',  ( 0.0000000000000000000, 0.0000000000000000000, 36.00000000000000000 ) ) ;
#120 = CIRCLE ( 'NONE', #147, 4.250000000000000000 ) ;
#121 = EDGE_LOOP ( 'NONE', ( #149, #99 ) ) ;
#122 = AXIS2_PLACEMENT_3D ( 'NONE', #83, #167, #85 ) ;
#123 = CIRCLE ( 'NONE', #187, 11.50000000000000000 ) ;
#124 = EDGE_LOOP ( 'NONE', ( #137, #73, #164, #75 ) ) ;
#125 = LINE ( 'NONE', #199, #47 ) ;
#126 =( LENGTH_UNIT ( ) NAMED_UNIT ( * ) SI_UNIT ( .MILLI., .METRE. ) );
#127 = ADVANCED_FACE ( 'NONE', ( #118 ), #180, .T. ) ;
#128 =( LENGTH_UNIT ( ) NAMED_UNIT ( * ) SI_UNIT ( .MILLI., .METRE. ) );
#129 = ORIENTED_EDGE ( 'NONE', *, *, #48, .F. ) ;
#130 = FACE_OUTER_BOUND ( 'NONE', #108, .T. ) ;
#131 = AXIS2_PLACEMENT_3D ( 'NONE', #134, #16, #53 ) ;
#132 = DIRECTION ( 'NONE',  ( -0.0000000000000000000, -0.0000000000000000000, -1.000000000000000000 ) ) ;
#133 = CARTESIAN_POINT ( 'NONE',  ( -11.50000000000000000, 0.0000000000000000000, 0.0000000000000000000 ) ) ;
#134 = CARTESIAN_POINT ( 'NONE',  ( 0.0000000000000000000, 0.0000000000000000000, 0.0000000000000000000 ) ) ;
#135 = CLOSED_SHELL ( 'NONE', ( #148, #127, #192, #26, #41, #77 ) ) ;
#136 = CYLINDRICAL_SURFACE ( 'NONE', #207, 4.250000000000000000 ) ;
#137 = ORIENTED_EDGE ( 'NONE', *, *, #49, .F. ) ;
#138 = VERTEX_POINT ( 'NONE', #66 ) ;
#139 = FACE_OUTER_BOUND ( 'NONE', #212, .T. ) ;
#140 = CYLINDRICAL_SURFACE ( 'NONE', #122, 11.50000000000000000 ) ;
#141 = EDGE_CURVE ( 'NONE', #138, #3, #158, .T. ) ;
#142 = DIRECTION ( 'NONE',  ( 0.0000000000000000000, 0.0000000000000000000, 1.000000000000000000 ) ) ;
#143 = SURFACE_STYLE_USAGE ( .BOTH. , #177 ) ;
#144 = PLANE ( 'NONE',  #113 ) ;
#145 = FACE_OUTER_BOUND ( 'NONE', #170, .T. ) ;
#146 = CARTESIAN_POINT ( 'NONE',  ( 11.50000000000000000, 1.408343819019456200E-015, 36.00000000000000000 ) ) ;
#147 = AXIS2_PLACEMENT_3D ( 'NONE', #76, #208, #39 ) ;
#148 = ADVANCED_FACE ( 'NONE', ( #145 ), #136, .F. ) ;
#149 = ORIENTED_EDGE ( 'NONE', *, *, #141, .T. ) ;
#150 = CARTESIAN_POINT ( 'NONE',  ( 0.0000000000000000000, 0.0000000000000000000, 36.00000000000000000 ) ) ;
#151 = CARTESIAN_POINT ( 'NONE',  ( 0.0000000000000000000, 0.0000000000000000000, 36.00000000000000000 ) ) ;
#152 = DIRECTION ( 'NONE',  ( -1.000000000000000000, 0.0000000000000000000, 0.0000000000000000000 ) ) ;
#153 = SURFACE_SIDE_STYLE ('',( #202 ) ) ;
#154 = COLOUR_RGB ( '',0.7921568627450980000, 0.8196078431372548800, 0.9333333333333333500 ) ;
#155 = VERTEX_POINT ( 'NONE', #89 ) ;
#156 = AXIS2_PLACEMENT_3D ( 'NONE', #58, #23, #96 ) ;
#157 = ORIENTED_EDGE ( 'NONE', *, *, #34, .F. ) ;
#158 = CIRCLE ( 'NONE', #131, 4.250000000000000000 ) ;
#159 = EDGE_LOOP ( 'NONE', ( #93, #206, #204, #18 ) ) ;
#160 = AXIS2_PLACEMENT_3D ( 'NONE', #40, #42, #163 ) ;
#161 = LINE ( 'NONE', #146, #22 ) ;
#162 = FILL_AREA_STYLE_COLOUR ( '', #106 ) ;
#163 = DIRECTION ( 'NONE',  ( 1.000000000000000000, 0.0000000000000000000, 0.0000000000000000000 ) ) ;
#164 = ORIENTED_EDGE ( 'NONE', *, *, #179, .T. ) ;
#165 = DIRECTION ( 'NONE',  ( 0.0000000000000000000, 0.0000000000000000000, 1.000000000000000000 ) ) ;
#166 = AXIS2_PLACEMENT_3D ( 'NONE', #197, #80, #98 ) ;
#167 = DIRECTION ( 'NONE',  ( -0.0000000000000000000, -0.0000000000000000000, -1.000000000000000000 ) ) ;
#168 = CARTESIAN_POINT ( 'NONE',  ( 4.250000000000000000, 5.204748896376250700E-016, 0.0000000000000000000 ) ) ;
#169 =( NAMED_UNIT ( * ) SI_UNIT ( $, .STERADIAN. ) SOLID_ANGLE_UNIT ( ) );
#170 = EDGE_LOOP ( 'NONE', ( #61, #63, #171, #19 ) ) ;
#171 = ORIENTED_EDGE ( 'NONE', *, *, #141, .F. ) ;
#172 = ADVANCED_BREP_SHAPE_REPRESENTATION ( 'S_C_303_SUPPORT', ( #109, #160 ), #194 ) ;
#173 = ORIENTED_EDGE ( 'NONE', *, *, #91, .F. ) ;
#174 = VERTEX_POINT ( 'NONE', #201 ) ;
#175 = AXIS2_PLACEMENT_3D ( 'NONE', #119, #86, #152 ) ;
#176 = APPLICATION_PROTOCOL_DEFINITION ( 'draft international standard', 'automotive_design', 1998, #178 ) ;
#177 = SURFACE_SIDE_STYLE ('',( #79 ) ) ;
#178 = APPLICATION_CONTEXT ( 'automotive_design' ) ;
#179 = EDGE_CURVE ( 'NONE', #70, #195, #8, .T. ) ;
#180 = CYLINDRICAL_SURFACE ( 'NONE', #175, 11.50000000000000000 ) ;
#181 = DIRECTION ( 'NONE',  ( 1.000000000000000000, 0.0000000000000000000, -0.0000000000000000000 ) ) ;
#182 = PRODUCT_DEFINITION ( 'UNKNOWN', '', #68, #88 ) ;
#183 = CARTESIAN_POINT ( 'NONE',  ( 11.50000000000000000, 1.408343819019456200E-015, 0.0000000000000000000 ) ) ;
#184 = DIRECTION ( 'NONE',  ( 1.000000000000000000, 0.0000000000000000000, 0.0000000000000000000 ) ) ;
#185 = DIRECTION ( 'NONE',  ( -1.000000000000000000, 0.0000000000000000000, 0.0000000000000000000 ) ) ;
#186 = EDGE_LOOP ( 'NONE', ( #173, #129 ) ) ;
#187 = AXIS2_PLACEMENT_3D ( 'NONE', #60, #112, #81 ) ;
#188 = STYLED_ITEM ( 'NONE', ( #69 ), #172 ) ;
#189 = ORIENTED_EDGE ( 'NONE', *, *, #100, .T. ) ;
#190 = LINE ( 'NONE', #213, #38 ) ;
#191 = CARTESIAN_POINT ( 'NONE',  ( 0.0000000000000000000, 0.0000000000000000000, 36.00000000000000000 ) ) ;
#192 = ADVANCED_FACE ( 'NONE', ( #139, #104 ), #144, .T. ) ;
#193 =( NAMED_UNIT ( * ) SI_UNIT ( $, .STERADIAN. ) SOLID_ANGLE_UNIT ( ) );
#194 =( GEOMETRIC_REPRESENTATION_CONTEXT ( 3 ) GLOBAL_UNCERTAINTY_ASSIGNED_CONTEXT ( ( #12 ) ) GLOBAL_UNIT_ASSIGNED_CONTEXT ( ( #128, #78, #193 ) ) REPRESENTATION_CONTEXT ( 'NONE', 'WORKASPACE' ) );
#195 = VERTEX_POINT ( 'NONE', #133 ) ;
#196 = EDGE_CURVE ( 'NONE', #3, #138, #120, .T. ) ;
#197 = CARTESIAN_POINT ( 'NONE',  ( 0.0000000000000000000, 0.0000000000000000000, 36.00000000000000000 ) ) ;
#198 = PLANE ( 'NONE',  #17 ) ;
#199 = CARTESIAN_POINT ( 'NONE',  ( -4.250000000000000000, 0.0000000000000000000, 36.00000000000000000 ) ) ;
#200 = CARTESIAN_POINT ( 'NONE',  ( 0.0000000000000000000, 0.0000000000000000000, 0.0000000000000000000 ) ) ;
#201 = CARTESIAN_POINT ( 'NONE',  ( 11.50000000000000000, 1.408343819019456200E-015, 36.00000000000000000 ) ) ;
#202 = SURFACE_STYLE_FILL_AREA ( #116 ) ;
#203 = AXIS2_PLACEMENT_3D ( 'NONE', #200, #32, #52 ) ;
#204 = ORIENTED_EDGE ( 'NONE', *, *, #21, .T. ) ;
#205 = PRESENTATION_LAYER_ASSIGNMENT (  '', '', ( #188 ) ) ;
#206 = ORIENTED_EDGE ( 'NONE', *, *, #48, .T. ) ;
#207 = AXIS2_PLACEMENT_3D ( 'NONE', #151, #117, #67 ) ;
#208 = DIRECTION ( 'NONE',  ( 0.0000000000000000000, 0.0000000000000000000, 1.000000000000000000 ) ) ;
#209 = APPLICATION_PROTOCOL_DEFINITION ( 'draft international standard', 'automotive_design', 1998, #95 ) ;
#210 = CYLINDRICAL_SURFACE ( 'NONE', #57, 4.250000000000000000 ) ;
#211 = PRESENTATION_LAYER_ASSIGNMENT (  '', '', ( #56 ) ) ;
#212 = EDGE_LOOP ( 'NONE', ( #94, #107 ) ) ;
#213 = CARTESIAN_POINT ( 'NONE',  ( 4.250000000000000000, 5.204748896376250700E-016, 36.00000000000000000 ) ) ;
#214 = CARTESIAN_POINT ( 'NONE',  ( 0.0000000000000000000, 0.0000000000000000000, 0.0000000000000000000 ) ) ;
ENDSEC;
END-ISO-10303-21;
