ISO-10303-21;
HEADER;
FILE_DESCRIPTION (( 'STEP AP203' ),
    '1' );
FILE_NAME ('Bague disque frein avant 520i sur 323i.STEP',
    '2019-09-02T15:26:01',
    ( '' ),
    ( '' ),
    'SwSTEP 2.0',
    'SolidWorks 2018',
    '' );
FILE_SCHEMA (( 'CONFIG_CONTROL_DESIGN' ));
ENDSEC;

DATA;
#1 = PERSON ( 'UNSPECIFIED', 'UNSPECIFIED', 'UNSPECIFIED', ('UNSPECIFIED'), ('UNSPECIFIED'), ('UNSPECIFIED') ) ;
#2 = ORIENTED_EDGE ( 'NONE', *, *, #29, .T. ) ;
#3 = APPROVAL_DATE_TIME ( #97, #297 ) ;
#4 = ADVANCED_FACE ( 'NONE', ( #100, #116 ), #9, .T. ) ;
#5 = AXIS2_PLACEMENT_3D ( 'NONE', #136, #261, #185 ) ;
#6 = EDGE_LOOP ( 'NONE', ( #31, #217, #205, #237 ) ) ;
#7 = DIRECTION ( 'NONE',  ( 1.000000000000000000, 0.0000000000000000000, 0.0000000000000000000 ) ) ;
#8 = CALENDAR_DATE ( 2019, 2, 9 ) ;
#9 = PLANE ( 'NONE',  #266 ) ;
#10 = EDGE_CURVE ( 'NONE', #278, #67, #75, .T. ) ;
#11 = CARTESIAN_POINT ( 'NONE',  ( 0.0000000000000000000, 0.0000000000000000000, 6.500000000000000000 ) ) ;
#12 = VECTOR ( 'NONE', #236, 1000.000000000000114 ) ;
#13 = ORIENTED_EDGE ( 'NONE', *, *, #169, .F. ) ;
#14 = DIRECTION ( 'NONE',  ( 1.000000000000000000, 0.0000000000000000000, -0.0000000000000000000 ) ) ;
#15 = CARTESIAN_POINT ( 'NONE',  ( 0.0000000000000000000, 0.0000000000000000000, 3.499999999999906741 ) ) ;
#16 = CARTESIAN_POINT ( 'NONE',  ( 34.00000000000009237, 0.0000000000000000000, 6.500000000000000000 ) ) ;
#17 = ORIENTED_EDGE ( 'NONE', *, *, #55, .T. ) ;
#18 = SECURITY_CLASSIFICATION_LEVEL ( 'unclassified' ) ;
#19 = LOCAL_TIME ( 17, 26, 1.000000000000000000, #78 ) ;
#20 = CONICAL_SURFACE ( 'NONE', #213, 31.00000000000000000, 0.7853981633974482790 ) ;
#21 =( NAMED_UNIT ( * ) SI_UNIT ( $, .STERADIAN. ) SOLID_ANGLE_UNIT ( ) );
#22 = AXIS2_PLACEMENT_3D ( 'NONE', #144, #253, #126 ) ;
#23 = PERSON_AND_ORGANIZATION_ROLE ( 'classification_officer' ) ;
#24 = VERTEX_POINT ( 'NONE', #234 ) ;
#25 = DIRECTION ( 'NONE',  ( 0.0000000000000000000, 0.0000000000000000000, 1.000000000000000000 ) ) ;
#26 = ORIENTED_EDGE ( 'NONE', *, *, #282, .T. ) ;
#27 = PERSON_AND_ORGANIZATION ( #1, #229 ) ;
#28 = CYLINDRICAL_SURFACE ( 'NONE', #225, 31.00000000000000000 ) ;
#29 = EDGE_CURVE ( 'NONE', #180, #149, #181, .T. ) ;
#30 = DIRECTION ( 'NONE',  ( 0.0000000000000000000, 0.0000000000000000000, 1.000000000000000000 ) ) ;
#31 = ORIENTED_EDGE ( 'NONE', *, *, #55, .F. ) ;
#32 = DATE_AND_TIME ( #101, #94 ) ;
#33 = CC_DESIGN_DATE_AND_TIME_ASSIGNMENT ( #203, #195, ( #264 ) ) ;
#34 = ORIENTED_EDGE ( 'NONE', *, *, #154, .F. ) ;
#35 =( GEOMETRIC_REPRESENTATION_CONTEXT ( 3 ) GLOBAL_UNCERTAINTY_ASSIGNED_CONTEXT ( ( #62 ) ) GLOBAL_UNIT_ASSIGNED_CONTEXT ( ( #146, #251, #21 ) ) REPRESENTATION_CONTEXT ( 'NONE', 'WORKASPACE' ) );
#36 = DATE_AND_TIME ( #232, #140 ) ;
#37 = DIRECTION ( 'NONE',  ( -0.0000000000000000000, -0.0000000000000000000, -1.000000000000000000 ) ) ;
#38 = CC_DESIGN_APPROVAL ( #274, ( #264 ) ) ;
#39 = CARTESIAN_POINT ( 'NONE',  ( -31.00000000000000000, 0.0000000000000000000, 3.499999999999906741 ) ) ;
#40 = DIRECTION ( 'NONE',  ( 0.0000000000000000000, 0.0000000000000000000, 1.000000000000000000 ) ) ;
#41 = EDGE_LOOP ( 'NONE', ( #141, #34, #90, #160 ) ) ;
#42 = CARTESIAN_POINT ( 'NONE',  ( 0.0000000000000000000, 0.0000000000000000000, 6.500000000000000000 ) ) ;
#43 = ORIENTED_EDGE ( 'NONE', *, *, #212, .T. ) ;
#44 = ORIENTED_EDGE ( 'NONE', *, *, #169, .T. ) ;
#45 = PRODUCT ( 'Bague disque frein avant 520i sur 323i', 'Bague disque frein avant 520i sur 323i', '', ( #249 ) ) ;
#46 = AXIS2_PLACEMENT_3D ( 'NONE', #298, #25, #89 ) ;
#47 = ORIENTED_EDGE ( 'NONE', *, *, #207, .F. ) ;
#48 = APPROVAL_DATE_TIME ( #151, #244 ) ;
#49 = AXIS2_PLACEMENT_3D ( 'NONE', #135, #156, #7 ) ;
#50 = VERTEX_POINT ( 'NONE', #71 ) ;
#51 = CALENDAR_DATE ( 2019, 2, 9 ) ;
#52 = DIRECTION ( 'NONE',  ( -0.0000000000000000000, -0.0000000000000000000, -1.000000000000000000 ) ) ;
#53 = EDGE_CURVE ( 'NONE', #254, #149, #178, .T. ) ;
#54 = CARTESIAN_POINT ( 'NONE',  ( 31.00000000000000000, 3.796405077356794326E-15, 0.0000000000000000000 ) ) ;
#55 = EDGE_CURVE ( 'NONE', #180, #76, #243, .T. ) ;
#56 = CLOSED_SHELL ( 'NONE', ( #233, #175, #96, #4, #69, #283, #114, #66 ) ) ;
#57 = DIRECTION ( 'NONE',  ( -0.0000000000000000000, -0.0000000000000000000, -1.000000000000000000 ) ) ;
#58 = DIRECTION ( 'NONE',  ( 1.000000000000000000, 0.0000000000000000000, 0.0000000000000000000 ) ) ;
#59 = APPROVAL_STATUS ( 'not_yet_approved' ) ;
#60 = APPLICATION_CONTEXT ( 'configuration controlled 3d designs of mechanical parts and assemblies' ) ;
#61 = DIRECTION ( 'NONE',  ( -0.0000000000000000000, -0.0000000000000000000, -1.000000000000000000 ) ) ;
#62 = UNCERTAINTY_MEASURE_WITH_UNIT (LENGTH_MEASURE( 1.000000000000000082E-05 ), #146, 'distance_accuracy_value', 'NONE');
#63 = ORIENTED_EDGE ( 'NONE', *, *, #154, .T. ) ;
#64 = AXIS2_PLACEMENT_3D ( 'NONE', #292, #52, #102 ) ;
#65 = EDGE_LOOP ( 'NONE', ( #44, #171 ) ) ;
#66 = ADVANCED_FACE ( 'NONE', ( #269 ), #137, .F. ) ;
#67 = VERTEX_POINT ( 'NONE', #215 ) ;
#68 = EDGE_CURVE ( 'NONE', #76, #50, #145, .T. ) ;
#69 = ADVANCED_FACE ( 'NONE', ( #201, #260 ), #73, .F. ) ;
#70 = CARTESIAN_POINT ( 'NONE',  ( 0.0000000000000000000, 0.0000000000000000000, 3.499999999999906741 ) ) ;
#71 = CARTESIAN_POINT ( 'NONE',  ( -31.00000000000000000, 0.0000000000000000000, 0.0000000000000000000 ) ) ;
#72 = DIRECTION ( 'NONE',  ( 0.0000000000000000000, 0.0000000000000000000, 1.000000000000000000 ) ) ;
#73 = PLANE ( 'NONE',  #204 ) ;
#74 = CARTESIAN_POINT ( 'NONE',  ( -37.45000000000000284, 0.0000000000000000000, 6.500000000000000000 ) ) ;
#75 = CIRCLE ( 'NONE', #5, 37.45000000000000284 ) ;
#76 = VERTEX_POINT ( 'NONE', #54 ) ;
#77 = DIRECTION ( 'NONE',  ( 1.000000000000000000, 0.0000000000000000000, 0.0000000000000000000 ) ) ;
#78 = COORDINATED_UNIVERSAL_TIME_OFFSET ( 1, 0, .AHEAD. ) ;
#79 = CC_DESIGN_SECURITY_CLASSIFICATION ( #91, ( #235 ) ) ;
#80 = CARTESIAN_POINT ( 'NONE',  ( 0.0000000000000000000, 0.0000000000000000000, 6.500000000000000000 ) ) ;
#81 = CYLINDRICAL_SURFACE ( 'NONE', #240, 31.00000000000000000 ) ;
#82 = CARTESIAN_POINT ( 'NONE',  ( 0.0000000000000000000, 0.0000000000000000000, 0.0000000000000000000 ) ) ;
#83 = ORIENTED_EDGE ( 'NONE', *, *, #216, .F. ) ;
#84 = CARTESIAN_POINT ( 'NONE',  ( 0.0000000000000000000, 0.0000000000000000000, 3.499999999999906741 ) ) ;
#85 = PERSON_AND_ORGANIZATION ( #1, #229 ) ;
#86 = DIRECTION ( 'NONE',  ( -0.0000000000000000000, -0.0000000000000000000, -1.000000000000000000 ) ) ;
#87 = APPLICATION_PROTOCOL_DEFINITION ( 'international standard', 'config_control_design', 1994, #280 ) ;
#88 = CYLINDRICAL_SURFACE ( 'NONE', #64, 37.45000000000000284 ) ;
#89 = DIRECTION ( 'NONE',  ( 1.000000000000000000, 0.0000000000000000000, 0.0000000000000000000 ) ) ;
#90 = ORIENTED_EDGE ( 'NONE', *, *, #207, .T. ) ;
#91 = SECURITY_CLASSIFICATION ( '', '', #18 ) ;
#92 = PERSON_AND_ORGANIZATION ( #1, #229 ) ;
#93 = ORIENTED_EDGE ( 'NONE', *, *, #212, .F. ) ;
#94 = LOCAL_TIME ( 17, 26, 1.000000000000000000, #131 ) ;
#95 = CC_DESIGN_PERSON_AND_ORGANIZATION_ASSIGNMENT ( #241, #166, ( #235 ) ) ;
#96 = ADVANCED_FACE ( 'NONE', ( #275 ), #88, .T. ) ;
#97 = DATE_AND_TIME ( #119, #19 ) ;
#98 = ORIENTED_EDGE ( 'NONE', *, *, #10, .T. ) ;
#99 = ORIENTED_EDGE ( 'NONE', *, *, #152, .T. ) ;
#100 = FACE_BOUND ( 'NONE', #65, .T. ) ;
#101 = CALENDAR_DATE ( 2019, 2, 9 ) ;
#102 = DIRECTION ( 'NONE',  ( -1.000000000000000000, 0.0000000000000000000, 0.0000000000000000000 ) ) ;
#103 = DIRECTION ( 'NONE',  ( -0.0000000000000000000, -0.0000000000000000000, -1.000000000000000000 ) ) ;
#104 = ORIENTED_EDGE ( 'NONE', *, *, #29, .F. ) ;
#105 = CARTESIAN_POINT ( 'NONE',  ( 0.0000000000000000000, 0.0000000000000000000, 0.0000000000000000000 ) ) ;
#106 = APPROVAL_STATUS ( 'not_yet_approved' ) ;
#107 = VECTOR ( 'NONE', #268, 1000.000000000000114 ) ;
#108 = PRODUCT_RELATED_PRODUCT_CATEGORY ( 'detail', '', ( #45 ) ) ;
#109 = AXIS2_PLACEMENT_3D ( 'NONE', #42, #57, #189 ) ;
#110 = CARTESIAN_POINT ( 'NONE',  ( 0.0000000000000000000, 0.0000000000000000000, 6.500000000000000000 ) ) ;
#111 = FACE_OUTER_BOUND ( 'NONE', #231, .T. ) ;
#112 = FACE_OUTER_BOUND ( 'NONE', #6, .T. ) ;
#113 = EDGE_CURVE ( 'NONE', #117, #254, #294, .T. ) ;
#114 = ADVANCED_FACE ( 'NONE', ( #112 ), #81, .F. ) ;
#115 = LOCAL_TIME ( 17, 26, 1.000000000000000000, #239 ) ;
#116 = FACE_OUTER_BOUND ( 'NONE', #139, .T. ) ;
#117 = VERTEX_POINT ( 'NONE', #39 ) ;
#118 = ADVANCED_BREP_SHAPE_REPRESENTATION ( 'Bague disque frein avant 520i sur 323i', ( #148, #46 ), #35 ) ;
#119 = CALENDAR_DATE ( 2019, 2, 9 ) ;
#120 = DIRECTION ( 'NONE',  ( 1.000000000000000000, 0.0000000000000000000, 0.0000000000000000000 ) ) ;
#121 = DIRECTION ( 'NONE',  ( -1.000000000000000000, 0.0000000000000000000, 0.0000000000000000000 ) ) ;
#122 = ORIENTED_EDGE ( 'NONE', *, *, #152, .F. ) ;
#123 = DIRECTION ( 'NONE',  ( -0.0000000000000000000, -0.0000000000000000000, -1.000000000000000000 ) ) ;
#124 = CC_DESIGN_PERSON_AND_ORGANIZATION_ASSIGNMENT ( #208, #172, ( #264 ) ) ;
#125 = PERSON_AND_ORGANIZATION_ROLE ( 'design_supplier' ) ;
#126 = DIRECTION ( 'NONE',  ( 1.000000000000000000, 0.0000000000000000000, 0.0000000000000000000 ) ) ;
#127 = COORDINATED_UNIVERSAL_TIME_OFFSET ( 1, 0, .AHEAD. ) ;
#128 = VECTOR ( 'NONE', #61, 1000.000000000000000 ) ;
#129 = ORIENTED_EDGE ( 'NONE', *, *, #113, .T. ) ;
#130 = AXIS2_PLACEMENT_3D ( 'NONE', #80, #162, #77 ) ;
#131 = COORDINATED_UNIVERSAL_TIME_OFFSET ( 1, 0, .AHEAD. ) ;
#132 = FACE_OUTER_BOUND ( 'NONE', #41, .T. ) ;
#133 = CARTESIAN_POINT ( 'NONE',  ( 0.0000000000000000000, 0.0000000000000000000, 6.500000000000000000 ) ) ;
#134 = VECTOR ( 'NONE', #37, 1000.000000000000000 ) ;
#135 = CARTESIAN_POINT ( 'NONE',  ( 0.0000000000000000000, 0.0000000000000000000, 6.500000000000000000 ) ) ;
#136 = CARTESIAN_POINT ( 'NONE',  ( 0.0000000000000000000, 0.0000000000000000000, 6.500000000000000000 ) ) ;
#137 = CONICAL_SURFACE ( 'NONE', #256, 31.00000000000000000, 0.7853981633974482790 ) ;
#138 = EDGE_LOOP ( 'NONE', ( #174, #206, #2, #202 ) ) ;
#139 = EDGE_LOOP ( 'NONE', ( #63, #98 ) ) ;
#140 = LOCAL_TIME ( 17, 26, 1.000000000000000000, #127 ) ;
#141 = ORIENTED_EDGE ( 'NONE', *, *, #173, .F. ) ;
#142 = DIRECTION ( 'NONE',  ( -0.0000000000000000000, -0.0000000000000000000, -1.000000000000000000 ) ) ;
#143 = PRODUCT_DEFINITION_SHAPE ( 'NONE', 'NONE',  #264 ) ;
#144 = CARTESIAN_POINT ( 'NONE',  ( 0.0000000000000000000, 0.0000000000000000000, 3.499999999999906741 ) ) ;
#145 = CIRCLE ( 'NONE', #191, 31.00000000000000000 ) ;
#146 =( LENGTH_UNIT ( ) NAMED_UNIT ( * ) SI_UNIT ( .MILLI., .METRE. ) );
#147 = APPROVAL_ROLE ( '' ) ;
#148 = MANIFOLD_SOLID_BREP ( 'Chanfrein1', #56 ) ;
#149 = VERTEX_POINT ( 'NONE', #16 ) ;
#150 = ORIENTED_EDGE ( 'NONE', *, *, #282, .F. ) ;
#151 = DATE_AND_TIME ( #51, #115 ) ;
#152 = EDGE_CURVE ( 'NONE', #50, #76, #222, .T. ) ;
#153 = CIRCLE ( 'NONE', #109, 34.00000000000009237 ) ;
#154 = EDGE_CURVE ( 'NONE', #67, #278, #163, .T. ) ;
#155 = VERTEX_POINT ( 'NONE', #290 ) ;
#156 = DIRECTION ( 'NONE',  ( -0.0000000000000000000, -0.0000000000000000000, -1.000000000000000000 ) ) ;
#157 = SHAPE_DEFINITION_REPRESENTATION ( #143, #118 ) ;
#158 = DIRECTION ( 'NONE',  ( 1.000000000000000000, 0.0000000000000000000, 0.0000000000000000000 ) ) ;
#159 = DIRECTION ( 'NONE',  ( -1.000000000000000000, 0.0000000000000000000, 0.0000000000000000000 ) ) ;
#160 = ORIENTED_EDGE ( 'NONE', *, *, #216, .T. ) ;
#161 = CARTESIAN_POINT ( 'NONE',  ( 37.45000000000000284, 4.586302262806837294E-15, 6.500000000000000000 ) ) ;
#162 = DIRECTION ( 'NONE',  ( 0.0000000000000000000, 0.0000000000000000000, 1.000000000000000000 ) ) ;
#163 = CIRCLE ( 'NONE', #130, 37.45000000000000284 ) ;
#164 = AXIS2_PLACEMENT_3D ( 'NONE', #291, #242, #218 ) ;
#165 = APPROVAL_DATE_TIME ( #32, #274 ) ;
#166 = PERSON_AND_ORGANIZATION_ROLE ( 'creator' ) ;
#167 = LINE ( 'NONE', #226, #128 ) ;
#168 = APPROVAL_STATUS ( 'not_yet_approved' ) ;
#169 = EDGE_CURVE ( 'NONE', #149, #254, #153, .T. ) ;
#170 = VECTOR ( 'NONE', #238, 1000.000000000000000 ) ;
#171 = ORIENTED_EDGE ( 'NONE', *, *, #53, .T. ) ;
#172 = PERSON_AND_ORGANIZATION_ROLE ( 'creator' ) ;
#173 = EDGE_CURVE ( 'NONE', #278, #24, #293, .T. ) ;
#174 = ORIENTED_EDGE ( 'NONE', *, *, #113, .F. ) ;
#175 = ADVANCED_FACE ( 'NONE', ( #259 ), #28, .F. ) ;
#176 = CC_DESIGN_PERSON_AND_ORGANIZATION_ASSIGNMENT ( #199, #276, ( #45 ) ) ;
#177 = VECTOR ( 'NONE', #103, 1000.000000000000000 ) ;
#178 = CIRCLE ( 'NONE', #49, 34.00000000000009237 ) ;
#179 = AXIS2_PLACEMENT_3D ( 'NONE', #110, #86, #279 ) ;
#180 = VERTEX_POINT ( 'NONE', #270 ) ;
#181 = LINE ( 'NONE', #214, #12 ) ;
#182 = EDGE_LOOP ( 'NONE', ( #83, #93 ) ) ;
#183 = ORIENTED_EDGE ( 'NONE', *, *, #296, .F. ) ;
#184 = DIRECTION ( 'NONE',  ( 1.000000000000000000, 0.0000000000000000000, -0.0000000000000000000 ) ) ;
#185 = DIRECTION ( 'NONE',  ( 1.000000000000000000, 0.0000000000000000000, 0.0000000000000000000 ) ) ;
#186 = APPROVAL_PERSON_ORGANIZATION ( #262, #274, #147 ) ;
#187 = CIRCLE ( 'NONE', #257, 37.45000000000000284 ) ;
#188 = CC_DESIGN_PERSON_AND_ORGANIZATION_ASSIGNMENT ( #27, #125, ( #235 ) ) ;
#189 = DIRECTION ( 'NONE',  ( 1.000000000000000000, 0.0000000000000000000, 0.0000000000000000000 ) ) ;
#190 = CARTESIAN_POINT ( 'NONE',  ( -31.00000000000000000, 3.796405077356795115E-15, 3.499999999999906741 ) ) ;
#191 = AXIS2_PLACEMENT_3D ( 'NONE', #219, #247, #158 ) ;
#192 = DIRECTION ( 'NONE',  ( 1.000000000000000000, 0.0000000000000000000, 0.0000000000000000000 ) ) ;
#193 = DIRECTION ( 'NONE',  ( 0.0000000000000000000, 0.0000000000000000000, 1.000000000000000000 ) ) ;
#194 = PERSON_AND_ORGANIZATION ( #1, #229 ) ;
#195 = DATE_TIME_ROLE ( 'creation_date' ) ;
#196 = DIRECTION ( 'NONE',  ( 1.000000000000000000, 0.0000000000000000000, 0.0000000000000000000 ) ) ;
#197 = DATE_TIME_ROLE ( 'classification_date' ) ;
#198 = APPROVAL_PERSON_ORGANIZATION ( #92, #244, #272 ) ;
#199 = PERSON_AND_ORGANIZATION ( #1, #229 ) ;
#200 = CIRCLE ( 'NONE', #281, 37.45000000000000284 ) ;
#201 = FACE_OUTER_BOUND ( 'NONE', #182, .T. ) ;
#202 = ORIENTED_EDGE ( 'NONE', *, *, #53, .F. ) ;
#203 = DATE_AND_TIME ( #8, #289 ) ;
#204 = AXIS2_PLACEMENT_3D ( 'NONE', #105, #245, #14 ) ;
#205 = ORIENTED_EDGE ( 'NONE', *, *, #296, .T. ) ;
#206 = ORIENTED_EDGE ( 'NONE', *, *, #263, .F. ) ;
#207 = EDGE_CURVE ( 'NONE', #67, #155, #252, .T. ) ;
#208 = PERSON_AND_ORGANIZATION ( #1, #229 ) ;
#209 = CC_DESIGN_PERSON_AND_ORGANIZATION_ASSIGNMENT ( #194, #23, ( #91 ) ) ;
#210 = CIRCLE ( 'NONE', #277, 31.00000000000000000 ) ;
#211 = DIRECTION ( 'NONE',  ( 1.000000000000000000, 0.0000000000000000000, 0.0000000000000000000 ) ) ;
#212 = EDGE_CURVE ( 'NONE', #24, #155, #200, .T. ) ;
#213 = AXIS2_PLACEMENT_3D ( 'NONE', #15, #40, #192 ) ;
#214 = CARTESIAN_POINT ( 'NONE',  ( 31.00000000000000000, 0.0000000000000000000, 3.499999999999906741 ) ) ;
#215 = CARTESIAN_POINT ( 'NONE',  ( -37.45000000000000284, 0.0000000000000000000, 6.500000000000000000 ) ) ;
#216 = EDGE_CURVE ( 'NONE', #155, #24, #187, .T. ) ;
#217 = ORIENTED_EDGE ( 'NONE', *, *, #263, .T. ) ;
#218 = DIRECTION ( 'NONE',  ( 1.000000000000000000, 0.0000000000000000000, 0.0000000000000000000 ) ) ;
#219 = CARTESIAN_POINT ( 'NONE',  ( 0.0000000000000000000, 0.0000000000000000000, 0.0000000000000000000 ) ) ;
#220 = DIRECTION ( 'NONE',  ( 0.0000000000000000000, 0.0000000000000000000, 1.000000000000000000 ) ) ;
#221 = APPROVAL_ROLE ( '' ) ;
#222 = CIRCLE ( 'NONE', #164, 31.00000000000000000 ) ;
#223 = CARTESIAN_POINT ( 'NONE',  ( -34.00000000000009237, 4.163799117101012392E-15, 6.500000000000000000 ) ) ;
#224 = EDGE_LOOP ( 'NONE', ( #258, #246, #43, #47 ) ) ;
#225 = AXIS2_PLACEMENT_3D ( 'NONE', #288, #123, #159 ) ;
#226 = CARTESIAN_POINT ( 'NONE',  ( -31.00000000000000000, 0.0000000000000000000, 6.500000000000000000 ) ) ;
#227 = CARTESIAN_POINT ( 'NONE',  ( 37.45000000000000284, 4.586302262806837294E-15, 6.500000000000000000 ) ) ;
#228 = CC_DESIGN_DATE_AND_TIME_ASSIGNMENT ( #36, #197, ( #91 ) ) ;
#229 = ORGANIZATION ( 'UNSPECIFIED', 'UNSPECIFIED', '' ) ;
#230 = EDGE_LOOP ( 'NONE', ( #26, #17, #122, #183 ) ) ;
#231 = EDGE_LOOP ( 'NONE', ( #150, #129, #13, #104 ) ) ;
#232 = CALENDAR_DATE ( 2019, 2, 9 ) ;
#233 = ADVANCED_FACE ( 'NONE', ( #111 ), #20, .F. ) ;
#234 = CARTESIAN_POINT ( 'NONE',  ( 37.45000000000000284, 4.586302262806837294E-15, 0.0000000000000000000 ) ) ;
#235 = PRODUCT_DEFINITION_FORMATION_WITH_SPECIFIED_SOURCE ( 'ANY', '', #45, .NOT_KNOWN. ) ;
#236 = DIRECTION ( 'NONE',  ( 0.7071067811865474617, 0.0000000000000000000, 0.7071067811865474617 ) ) ;
#237 = ORIENTED_EDGE ( 'NONE', *, *, #68, .F. ) ;
#238 = DIRECTION ( 'NONE',  ( -0.0000000000000000000, -0.0000000000000000000, -1.000000000000000000 ) ) ;
#239 = COORDINATED_UNIVERSAL_TIME_OFFSET ( 1, 0, .AHEAD. ) ;
#240 = AXIS2_PLACEMENT_3D ( 'NONE', #11, #142, #121 ) ;
#241 = PERSON_AND_ORGANIZATION ( #1, #229 ) ;
#242 = DIRECTION ( 'NONE',  ( 0.0000000000000000000, 0.0000000000000000000, 1.000000000000000000 ) ) ;
#243 = LINE ( 'NONE', #287, #170 ) ;
#244 = APPROVAL ( #106, 'UNSPECIFIED' ) ;
#245 = DIRECTION ( 'NONE',  ( 0.0000000000000000000, 0.0000000000000000000, 1.000000000000000000 ) ) ;
#246 = ORIENTED_EDGE ( 'NONE', *, *, #173, .T. ) ;
#247 = DIRECTION ( 'NONE',  ( 0.0000000000000000000, 0.0000000000000000000, 1.000000000000000000 ) ) ;
#248 = DIRECTION ( 'NONE',  ( 0.0000000000000000000, 0.0000000000000000000, 1.000000000000000000 ) ) ;
#249 = MECHANICAL_CONTEXT ( 'NONE', #60, 'mechanical' ) ;
#250 = CIRCLE ( 'NONE', #22, 31.00000000000000000 ) ;
#251 =( NAMED_UNIT ( * ) PLANE_ANGLE_UNIT ( ) SI_UNIT ( $, .RADIAN. ) );
#252 = LINE ( 'NONE', #74, #177 ) ;
#253 = DIRECTION ( 'NONE',  ( 0.0000000000000000000, 0.0000000000000000000, 1.000000000000000000 ) ) ;
#254 = VERTEX_POINT ( 'NONE', #223 ) ;
#255 = CC_DESIGN_APPROVAL ( #244, ( #91 ) ) ;
#256 = AXIS2_PLACEMENT_3D ( 'NONE', #70, #72, #211 ) ;
#257 = AXIS2_PLACEMENT_3D ( 'NONE', #82, #248, #58 ) ;
#258 = ORIENTED_EDGE ( 'NONE', *, *, #10, .F. ) ;
#259 = FACE_OUTER_BOUND ( 'NONE', #230, .T. ) ;
#260 = FACE_BOUND ( 'NONE', #265, .T. ) ;
#261 = DIRECTION ( 'NONE',  ( 0.0000000000000000000, 0.0000000000000000000, 1.000000000000000000 ) ) ;
#262 = PERSON_AND_ORGANIZATION ( #1, #229 ) ;
#263 = EDGE_CURVE ( 'NONE', #180, #117, #210, .T. ) ;
#264 = PRODUCT_DEFINITION ( 'UNKNOWN', '', #235, #285 ) ;
#265 = EDGE_LOOP ( 'NONE', ( #99, #271 ) ) ;
#266 = AXIS2_PLACEMENT_3D ( 'NONE', #133, #30, #184 ) ;
#267 = CARTESIAN_POINT ( 'NONE',  ( 0.0000000000000000000, 0.0000000000000000000, 0.0000000000000000000 ) ) ;
#268 = DIRECTION ( 'NONE',  ( -0.7071067811865474617, 8.659560562354932858E-17, 0.7071067811865474617 ) ) ;
#269 = FACE_OUTER_BOUND ( 'NONE', #138, .T. ) ;
#270 = CARTESIAN_POINT ( 'NONE',  ( 31.00000000000000000, 3.796405077356794326E-15, 3.499999999999906741 ) ) ;
#271 = ORIENTED_EDGE ( 'NONE', *, *, #68, .T. ) ;
#272 = APPROVAL_ROLE ( '' ) ;
#273 = COORDINATED_UNIVERSAL_TIME_OFFSET ( 1, 0, .AHEAD. ) ;
#274 = APPROVAL ( #168, 'UNSPECIFIED' ) ;
#275 = FACE_OUTER_BOUND ( 'NONE', #224, .T. ) ;
#276 = PERSON_AND_ORGANIZATION_ROLE ( 'design_owner' ) ;
#277 = AXIS2_PLACEMENT_3D ( 'NONE', #84, #193, #196 ) ;
#278 = VERTEX_POINT ( 'NONE', #227 ) ;
#279 = DIRECTION ( 'NONE',  ( -1.000000000000000000, 0.0000000000000000000, 0.0000000000000000000 ) ) ;
#280 = APPLICATION_CONTEXT ( 'configuration controlled 3d designs of mechanical parts and assemblies' ) ;
#281 = AXIS2_PLACEMENT_3D ( 'NONE', #267, #220, #120 ) ;
#282 = EDGE_CURVE ( 'NONE', #117, #180, #250, .T. ) ;
#283 = ADVANCED_FACE ( 'NONE', ( #132 ), #299, .T. ) ;
#284 = APPROVAL_PERSON_ORGANIZATION ( #85, #297, #221 ) ;
#285 = DESIGN_CONTEXT ( 'detailed design', #280, 'design' ) ;
#286 = CC_DESIGN_APPROVAL ( #297, ( #235 ) ) ;
#287 = CARTESIAN_POINT ( 'NONE',  ( 31.00000000000000000, 3.796405077356794326E-15, 6.500000000000000000 ) ) ;
#288 = CARTESIAN_POINT ( 'NONE',  ( 0.0000000000000000000, 0.0000000000000000000, 6.500000000000000000 ) ) ;
#289 = LOCAL_TIME ( 17, 26, 1.000000000000000000, #273 ) ;
#290 = CARTESIAN_POINT ( 'NONE',  ( -37.45000000000000284, 0.0000000000000000000, 0.0000000000000000000 ) ) ;
#291 = CARTESIAN_POINT ( 'NONE',  ( 0.0000000000000000000, 0.0000000000000000000, 0.0000000000000000000 ) ) ;
#292 = CARTESIAN_POINT ( 'NONE',  ( 0.0000000000000000000, 0.0000000000000000000, 6.500000000000000000 ) ) ;
#293 = LINE ( 'NONE', #161, #134 ) ;
#294 = LINE ( 'NONE', #190, #107 ) ;
#295 = APPLICATION_PROTOCOL_DEFINITION ( 'international standard', 'config_control_design', 1994, #60 ) ;
#296 = EDGE_CURVE ( 'NONE', #117, #50, #167, .T. ) ;
#297 = APPROVAL ( #59, 'UNSPECIFIED' ) ;
#298 = CARTESIAN_POINT ( 'NONE',  ( 0.0000000000000000000, 0.0000000000000000000, 0.0000000000000000000 ) ) ;
#299 = CYLINDRICAL_SURFACE ( 'NONE', #179, 37.45000000000000284 ) ;
ENDSEC;
END-ISO-10303-21;
