ISO-10303-21;
HEADER;
/* Generated by software containing ST-Developer
 * from STEP Tools, Inc. (www.steptools.com) 
 */

FILE_DESCRIPTION(
/* description */ (''),
/* implementation_level */ '2;1');

FILE_NAME(
/* name */ 'C:/Users/chreb/Desktop/Hot bed.step',
/* time_stamp */ '2019-09-23T20:46:29+02:00',
/* author */ (''),
/* organization */ (''),
/* preprocessor_version */ 'ST-DEVELOPER v18',
/* originating_system */ 'Autodesk Translation Framework v8.6.0.1094',
/* authorisation */ '');

FILE_SCHEMA (('AUTOMOTIVE_DESIGN { 1 0 10303 214 3 1 1 }'));
ENDSEC;

DATA;
#10=MECHANICAL_DESIGN_GEOMETRIC_PRESENTATION_REPRESENTATION('',(#13),#619);
#11=SHAPE_REPRESENTATION_RELATIONSHIP('SRR','None',#626,#12);
#12=ADVANCED_BREP_SHAPE_REPRESENTATION('',(#14),#618);
#13=STYLED_ITEM('',(#636),#14);
#14=MANIFOLD_SOLID_BREP('Body1',#351);
#15=CONICAL_SURFACE('',#403,2.1,0.785398163397447);
#16=CONICAL_SURFACE('',#404,2.1,0.785398163397452);
#17=CONICAL_SURFACE('',#405,2.1,0.785398163397452);
#18=CONICAL_SURFACE('',#406,2.1,0.785398163397447);
#19=FACE_BOUND('',#60,.T.);
#20=FACE_BOUND('',#61,.T.);
#21=FACE_BOUND('',#62,.T.);
#22=FACE_BOUND('',#63,.T.);
#23=FACE_BOUND('',#65,.T.);
#24=FACE_BOUND('',#66,.T.);
#25=FACE_BOUND('',#67,.T.);
#26=FACE_BOUND('',#68,.T.);
#27=PLANE('',#377);
#28=PLANE('',#378);
#29=PLANE('',#379);
#30=PLANE('',#380);
#31=PLANE('',#381);
#32=PLANE('',#386);
#33=FACE_OUTER_BOUND('',#51,.T.);
#34=FACE_OUTER_BOUND('',#52,.T.);
#35=FACE_OUTER_BOUND('',#53,.T.);
#36=FACE_OUTER_BOUND('',#54,.T.);
#37=FACE_OUTER_BOUND('',#55,.T.);
#38=FACE_OUTER_BOUND('',#56,.T.);
#39=FACE_OUTER_BOUND('',#57,.T.);
#40=FACE_OUTER_BOUND('',#58,.T.);
#41=FACE_OUTER_BOUND('',#59,.T.);
#42=FACE_OUTER_BOUND('',#64,.T.);
#43=FACE_OUTER_BOUND('',#69,.T.);
#44=FACE_OUTER_BOUND('',#70,.T.);
#45=FACE_OUTER_BOUND('',#71,.T.);
#46=FACE_OUTER_BOUND('',#72,.T.);
#47=FACE_OUTER_BOUND('',#73,.T.);
#48=FACE_OUTER_BOUND('',#74,.T.);
#49=FACE_OUTER_BOUND('',#75,.T.);
#50=FACE_OUTER_BOUND('',#76,.T.);
#51=EDGE_LOOP('',(#229,#230,#231,#232));
#52=EDGE_LOOP('',(#233,#234,#235,#236));
#53=EDGE_LOOP('',(#237,#238,#239,#240));
#54=EDGE_LOOP('',(#241,#242,#243,#244));
#55=EDGE_LOOP('',(#245,#246,#247,#248));
#56=EDGE_LOOP('',(#249,#250,#251,#252));
#57=EDGE_LOOP('',(#253,#254,#255,#256));
#58=EDGE_LOOP('',(#257,#258,#259,#260));
#59=EDGE_LOOP('',(#261,#262,#263,#264,#265,#266,#267,#268));
#60=EDGE_LOOP('',(#269));
#61=EDGE_LOOP('',(#270));
#62=EDGE_LOOP('',(#271));
#63=EDGE_LOOP('',(#272));
#64=EDGE_LOOP('',(#273,#274,#275,#276,#277,#278,#279,#280));
#65=EDGE_LOOP('',(#281));
#66=EDGE_LOOP('',(#282));
#67=EDGE_LOOP('',(#283));
#68=EDGE_LOOP('',(#284));
#69=EDGE_LOOP('',(#285,#286,#287,#288,#289));
#70=EDGE_LOOP('',(#290,#291,#292,#293,#294));
#71=EDGE_LOOP('',(#295,#296,#297,#298,#299));
#72=EDGE_LOOP('',(#300,#301,#302,#303,#304));
#73=EDGE_LOOP('',(#305,#306,#307,#308,#309));
#74=EDGE_LOOP('',(#310,#311,#312,#313,#314));
#75=EDGE_LOOP('',(#315,#316,#317,#318,#319));
#76=EDGE_LOOP('',(#320,#321,#322,#323,#324));
#77=LINE('',#523,#101);
#78=LINE('',#526,#102);
#79=LINE('',#532,#103);
#80=LINE('',#535,#104);
#81=LINE('',#541,#105);
#82=LINE('',#544,#106);
#83=LINE('',#550,#107);
#84=LINE('',#553,#108);
#85=LINE('',#555,#109);
#86=LINE('',#556,#110);
#87=LINE('',#558,#111);
#88=LINE('',#559,#112);
#89=LINE('',#561,#113);
#90=LINE('',#562,#114);
#91=LINE('',#564,#115);
#92=LINE('',#565,#116);
#93=LINE('',#588,#117);
#94=LINE('',#594,#118);
#95=LINE('',#600,#119);
#96=LINE('',#606,#120);
#97=LINE('',#609,#121);
#98=LINE('',#611,#122);
#99=LINE('',#613,#123);
#100=LINE('',#615,#124);
#101=VECTOR('',#413,1000.);
#102=VECTOR('',#416,1000.);
#103=VECTOR('',#421,1000.);
#104=VECTOR('',#424,1000.);
#105=VECTOR('',#429,1000.);
#106=VECTOR('',#432,1000.);
#107=VECTOR('',#437,1000.);
#108=VECTOR('',#440,1000.);
#109=VECTOR('',#443,1000.);
#110=VECTOR('',#444,1000.);
#111=VECTOR('',#447,1000.);
#112=VECTOR('',#448,1000.);
#113=VECTOR('',#451,1000.);
#114=VECTOR('',#452,1000.);
#115=VECTOR('',#455,1000.);
#116=VECTOR('',#456,1000.);
#117=VECTOR('',#481,2.1);
#118=VECTOR('',#488,2.1);
#119=VECTOR('',#495,2.1);
#120=VECTOR('',#502,2.1);
#121=VECTOR('',#507,2.1);
#122=VECTOR('',#510,2.1);
#123=VECTOR('',#513,2.1);
#124=VECTOR('',#516,2.1);
#125=CIRCLE('',#366,3.);
#126=CIRCLE('',#367,3.);
#127=CIRCLE('',#369,3.);
#128=CIRCLE('',#370,3.);
#129=CIRCLE('',#372,3.);
#130=CIRCLE('',#373,3.);
#131=CIRCLE('',#375,3.);
#132=CIRCLE('',#376,3.);
#133=CIRCLE('',#382,2.1);
#134=CIRCLE('',#383,2.1);
#135=CIRCLE('',#384,2.1);
#136=CIRCLE('',#385,2.1);
#137=CIRCLE('',#387,4.90000000000004);
#138=CIRCLE('',#388,4.89999999999999);
#139=CIRCLE('',#389,4.89999999999999);
#140=CIRCLE('',#390,4.90000000000004);
#141=CIRCLE('',#392,2.1);
#142=CIRCLE('',#393,2.1);
#143=CIRCLE('',#395,2.1);
#144=CIRCLE('',#396,2.1);
#145=CIRCLE('',#398,2.1);
#146=CIRCLE('',#399,2.1);
#147=CIRCLE('',#401,2.1);
#148=CIRCLE('',#402,2.1);
#149=VERTEX_POINT('',#519);
#150=VERTEX_POINT('',#520);
#151=VERTEX_POINT('',#522);
#152=VERTEX_POINT('',#524);
#153=VERTEX_POINT('',#528);
#154=VERTEX_POINT('',#529);
#155=VERTEX_POINT('',#531);
#156=VERTEX_POINT('',#533);
#157=VERTEX_POINT('',#537);
#158=VERTEX_POINT('',#538);
#159=VERTEX_POINT('',#540);
#160=VERTEX_POINT('',#542);
#161=VERTEX_POINT('',#546);
#162=VERTEX_POINT('',#547);
#163=VERTEX_POINT('',#549);
#164=VERTEX_POINT('',#551);
#165=VERTEX_POINT('',#567);
#166=VERTEX_POINT('',#569);
#167=VERTEX_POINT('',#571);
#168=VERTEX_POINT('',#573);
#169=VERTEX_POINT('',#576);
#170=VERTEX_POINT('',#578);
#171=VERTEX_POINT('',#580);
#172=VERTEX_POINT('',#582);
#173=VERTEX_POINT('',#585);
#174=VERTEX_POINT('',#586);
#175=VERTEX_POINT('',#591);
#176=VERTEX_POINT('',#592);
#177=VERTEX_POINT('',#597);
#178=VERTEX_POINT('',#598);
#179=VERTEX_POINT('',#603);
#180=VERTEX_POINT('',#604);
#181=EDGE_CURVE('',#149,#150,#125,.T.);
#182=EDGE_CURVE('',#151,#149,#77,.T.);
#183=EDGE_CURVE('',#152,#151,#126,.T.);
#184=EDGE_CURVE('',#150,#152,#78,.T.);
#185=EDGE_CURVE('',#153,#154,#127,.T.);
#186=EDGE_CURVE('',#155,#153,#79,.T.);
#187=EDGE_CURVE('',#156,#155,#128,.T.);
#188=EDGE_CURVE('',#154,#156,#80,.T.);
#189=EDGE_CURVE('',#157,#158,#129,.T.);
#190=EDGE_CURVE('',#159,#157,#81,.T.);
#191=EDGE_CURVE('',#160,#159,#130,.T.);
#192=EDGE_CURVE('',#158,#160,#82,.T.);
#193=EDGE_CURVE('',#161,#162,#131,.T.);
#194=EDGE_CURVE('',#163,#161,#83,.T.);
#195=EDGE_CURVE('',#164,#163,#132,.T.);
#196=EDGE_CURVE('',#162,#164,#84,.T.);
#197=EDGE_CURVE('',#162,#157,#85,.T.);
#198=EDGE_CURVE('',#164,#159,#86,.T.);
#199=EDGE_CURVE('',#152,#163,#87,.T.);
#200=EDGE_CURVE('',#150,#161,#88,.T.);
#201=EDGE_CURVE('',#156,#151,#89,.T.);
#202=EDGE_CURVE('',#154,#149,#90,.T.);
#203=EDGE_CURVE('',#158,#153,#91,.T.);
#204=EDGE_CURVE('',#160,#155,#92,.T.);
#205=EDGE_CURVE('',#165,#165,#133,.T.);
#206=EDGE_CURVE('',#166,#166,#134,.T.);
#207=EDGE_CURVE('',#167,#167,#135,.T.);
#208=EDGE_CURVE('',#168,#168,#136,.T.);
#209=EDGE_CURVE('',#169,#169,#137,.T.);
#210=EDGE_CURVE('',#170,#170,#138,.T.);
#211=EDGE_CURVE('',#171,#171,#139,.T.);
#212=EDGE_CURVE('',#172,#172,#140,.T.);
#213=EDGE_CURVE('',#173,#174,#141,.T.);
#214=EDGE_CURVE('',#174,#167,#93,.T.);
#215=EDGE_CURVE('',#174,#173,#142,.T.);
#216=EDGE_CURVE('',#175,#176,#143,.T.);
#217=EDGE_CURVE('',#176,#166,#94,.T.);
#218=EDGE_CURVE('',#176,#175,#144,.T.);
#219=EDGE_CURVE('',#177,#178,#145,.T.);
#220=EDGE_CURVE('',#178,#168,#95,.T.);
#221=EDGE_CURVE('',#178,#177,#146,.T.);
#222=EDGE_CURVE('',#179,#180,#147,.T.);
#223=EDGE_CURVE('',#180,#165,#96,.T.);
#224=EDGE_CURVE('',#180,#179,#148,.T.);
#225=EDGE_CURVE('',#177,#172,#97,.T.);
#226=EDGE_CURVE('',#179,#171,#98,.T.);
#227=EDGE_CURVE('',#175,#170,#99,.T.);
#228=EDGE_CURVE('',#173,#169,#100,.T.);
#229=ORIENTED_EDGE('',*,*,#181,.F.);
#230=ORIENTED_EDGE('',*,*,#182,.F.);
#231=ORIENTED_EDGE('',*,*,#183,.F.);
#232=ORIENTED_EDGE('',*,*,#184,.F.);
#233=ORIENTED_EDGE('',*,*,#185,.F.);
#234=ORIENTED_EDGE('',*,*,#186,.F.);
#235=ORIENTED_EDGE('',*,*,#187,.F.);
#236=ORIENTED_EDGE('',*,*,#188,.F.);
#237=ORIENTED_EDGE('',*,*,#189,.F.);
#238=ORIENTED_EDGE('',*,*,#190,.F.);
#239=ORIENTED_EDGE('',*,*,#191,.F.);
#240=ORIENTED_EDGE('',*,*,#192,.F.);
#241=ORIENTED_EDGE('',*,*,#193,.F.);
#242=ORIENTED_EDGE('',*,*,#194,.F.);
#243=ORIENTED_EDGE('',*,*,#195,.F.);
#244=ORIENTED_EDGE('',*,*,#196,.F.);
#245=ORIENTED_EDGE('',*,*,#197,.F.);
#246=ORIENTED_EDGE('',*,*,#196,.T.);
#247=ORIENTED_EDGE('',*,*,#198,.T.);
#248=ORIENTED_EDGE('',*,*,#190,.T.);
#249=ORIENTED_EDGE('',*,*,#199,.T.);
#250=ORIENTED_EDGE('',*,*,#194,.T.);
#251=ORIENTED_EDGE('',*,*,#200,.F.);
#252=ORIENTED_EDGE('',*,*,#184,.T.);
#253=ORIENTED_EDGE('',*,*,#201,.T.);
#254=ORIENTED_EDGE('',*,*,#182,.T.);
#255=ORIENTED_EDGE('',*,*,#202,.F.);
#256=ORIENTED_EDGE('',*,*,#188,.T.);
#257=ORIENTED_EDGE('',*,*,#203,.F.);
#258=ORIENTED_EDGE('',*,*,#192,.T.);
#259=ORIENTED_EDGE('',*,*,#204,.T.);
#260=ORIENTED_EDGE('',*,*,#186,.T.);
#261=ORIENTED_EDGE('',*,*,#201,.F.);
#262=ORIENTED_EDGE('',*,*,#187,.T.);
#263=ORIENTED_EDGE('',*,*,#204,.F.);
#264=ORIENTED_EDGE('',*,*,#191,.T.);
#265=ORIENTED_EDGE('',*,*,#198,.F.);
#266=ORIENTED_EDGE('',*,*,#195,.T.);
#267=ORIENTED_EDGE('',*,*,#199,.F.);
#268=ORIENTED_EDGE('',*,*,#183,.T.);
#269=ORIENTED_EDGE('',*,*,#205,.T.);
#270=ORIENTED_EDGE('',*,*,#206,.T.);
#271=ORIENTED_EDGE('',*,*,#207,.T.);
#272=ORIENTED_EDGE('',*,*,#208,.T.);
#273=ORIENTED_EDGE('',*,*,#200,.T.);
#274=ORIENTED_EDGE('',*,*,#193,.T.);
#275=ORIENTED_EDGE('',*,*,#197,.T.);
#276=ORIENTED_EDGE('',*,*,#189,.T.);
#277=ORIENTED_EDGE('',*,*,#203,.T.);
#278=ORIENTED_EDGE('',*,*,#185,.T.);
#279=ORIENTED_EDGE('',*,*,#202,.T.);
#280=ORIENTED_EDGE('',*,*,#181,.T.);
#281=ORIENTED_EDGE('',*,*,#209,.T.);
#282=ORIENTED_EDGE('',*,*,#210,.T.);
#283=ORIENTED_EDGE('',*,*,#211,.T.);
#284=ORIENTED_EDGE('',*,*,#212,.T.);
#285=ORIENTED_EDGE('',*,*,#213,.T.);
#286=ORIENTED_EDGE('',*,*,#214,.T.);
#287=ORIENTED_EDGE('',*,*,#207,.F.);
#288=ORIENTED_EDGE('',*,*,#214,.F.);
#289=ORIENTED_EDGE('',*,*,#215,.T.);
#290=ORIENTED_EDGE('',*,*,#216,.T.);
#291=ORIENTED_EDGE('',*,*,#217,.T.);
#292=ORIENTED_EDGE('',*,*,#206,.F.);
#293=ORIENTED_EDGE('',*,*,#217,.F.);
#294=ORIENTED_EDGE('',*,*,#218,.T.);
#295=ORIENTED_EDGE('',*,*,#219,.T.);
#296=ORIENTED_EDGE('',*,*,#220,.T.);
#297=ORIENTED_EDGE('',*,*,#208,.F.);
#298=ORIENTED_EDGE('',*,*,#220,.F.);
#299=ORIENTED_EDGE('',*,*,#221,.T.);
#300=ORIENTED_EDGE('',*,*,#222,.T.);
#301=ORIENTED_EDGE('',*,*,#223,.T.);
#302=ORIENTED_EDGE('',*,*,#205,.F.);
#303=ORIENTED_EDGE('',*,*,#223,.F.);
#304=ORIENTED_EDGE('',*,*,#224,.T.);
#305=ORIENTED_EDGE('',*,*,#219,.F.);
#306=ORIENTED_EDGE('',*,*,#225,.T.);
#307=ORIENTED_EDGE('',*,*,#212,.F.);
#308=ORIENTED_EDGE('',*,*,#225,.F.);
#309=ORIENTED_EDGE('',*,*,#221,.F.);
#310=ORIENTED_EDGE('',*,*,#222,.F.);
#311=ORIENTED_EDGE('',*,*,#226,.T.);
#312=ORIENTED_EDGE('',*,*,#211,.F.);
#313=ORIENTED_EDGE('',*,*,#226,.F.);
#314=ORIENTED_EDGE('',*,*,#224,.F.);
#315=ORIENTED_EDGE('',*,*,#216,.F.);
#316=ORIENTED_EDGE('',*,*,#227,.T.);
#317=ORIENTED_EDGE('',*,*,#210,.F.);
#318=ORIENTED_EDGE('',*,*,#227,.F.);
#319=ORIENTED_EDGE('',*,*,#218,.F.);
#320=ORIENTED_EDGE('',*,*,#213,.F.);
#321=ORIENTED_EDGE('',*,*,#228,.T.);
#322=ORIENTED_EDGE('',*,*,#209,.F.);
#323=ORIENTED_EDGE('',*,*,#228,.F.);
#324=ORIENTED_EDGE('',*,*,#215,.F.);
#325=CYLINDRICAL_SURFACE('',#365,3.);
#326=CYLINDRICAL_SURFACE('',#368,3.);
#327=CYLINDRICAL_SURFACE('',#371,3.);
#328=CYLINDRICAL_SURFACE('',#374,3.);
#329=CYLINDRICAL_SURFACE('',#391,2.1);
#330=CYLINDRICAL_SURFACE('',#394,2.1);
#331=CYLINDRICAL_SURFACE('',#397,2.1);
#332=CYLINDRICAL_SURFACE('',#400,2.1);
#333=ADVANCED_FACE('',(#33),#325,.T.);
#334=ADVANCED_FACE('',(#34),#326,.T.);
#335=ADVANCED_FACE('',(#35),#327,.T.);
#336=ADVANCED_FACE('',(#36),#328,.T.);
#337=ADVANCED_FACE('',(#37),#27,.F.);
#338=ADVANCED_FACE('',(#38),#28,.F.);
#339=ADVANCED_FACE('',(#39),#29,.F.);
#340=ADVANCED_FACE('',(#40),#30,.F.);
#341=ADVANCED_FACE('',(#41,#19,#20,#21,#22),#31,.T.);
#342=ADVANCED_FACE('',(#42,#23,#24,#25,#26),#32,.F.);
#343=ADVANCED_FACE('',(#43),#329,.F.);
#344=ADVANCED_FACE('',(#44),#330,.F.);
#345=ADVANCED_FACE('',(#45),#331,.F.);
#346=ADVANCED_FACE('',(#46),#332,.F.);
#347=ADVANCED_FACE('',(#47),#15,.F.);
#348=ADVANCED_FACE('',(#48),#16,.F.);
#349=ADVANCED_FACE('',(#49),#17,.F.);
#350=ADVANCED_FACE('',(#50),#18,.F.);
#351=CLOSED_SHELL('',(#333,#334,#335,#336,#337,#338,#339,#340,#341,#342,
#343,#344,#345,#346,#347,#348,#349,#350));
#352=DERIVED_UNIT_ELEMENT(#354,1.);
#353=DERIVED_UNIT_ELEMENT(#621,3.);
#354=(
MASS_UNIT()
NAMED_UNIT(*)
SI_UNIT(.KILO.,.GRAM.)
);
#355=DERIVED_UNIT((#352,#353));
#356=MEASURE_REPRESENTATION_ITEM('density measure',
POSITIVE_RATIO_MEASURE(952.),#355);
#357=PROPERTY_DEFINITION_REPRESENTATION(#362,#359);
#358=PROPERTY_DEFINITION_REPRESENTATION(#363,#360);
#359=REPRESENTATION('material name',(#361),#618);
#360=REPRESENTATION('density',(#356),#618);
#361=DESCRIPTIVE_REPRESENTATION_ITEM('Plastic, Opaque Black',
'Plastic, Opaque Black');
#362=PROPERTY_DEFINITION('material property','material name',#628);
#363=PROPERTY_DEFINITION('material property','density of part',#628);
#364=AXIS2_PLACEMENT_3D('placement',#517,#407,#408);
#365=AXIS2_PLACEMENT_3D('',#518,#409,#410);
#366=AXIS2_PLACEMENT_3D('',#521,#411,#412);
#367=AXIS2_PLACEMENT_3D('',#525,#414,#415);
#368=AXIS2_PLACEMENT_3D('',#527,#417,#418);
#369=AXIS2_PLACEMENT_3D('',#530,#419,#420);
#370=AXIS2_PLACEMENT_3D('',#534,#422,#423);
#371=AXIS2_PLACEMENT_3D('',#536,#425,#426);
#372=AXIS2_PLACEMENT_3D('',#539,#427,#428);
#373=AXIS2_PLACEMENT_3D('',#543,#430,#431);
#374=AXIS2_PLACEMENT_3D('',#545,#433,#434);
#375=AXIS2_PLACEMENT_3D('',#548,#435,#436);
#376=AXIS2_PLACEMENT_3D('',#552,#438,#439);
#377=AXIS2_PLACEMENT_3D('',#554,#441,#442);
#378=AXIS2_PLACEMENT_3D('',#557,#445,#446);
#379=AXIS2_PLACEMENT_3D('',#560,#449,#450);
#380=AXIS2_PLACEMENT_3D('',#563,#453,#454);
#381=AXIS2_PLACEMENT_3D('',#566,#457,#458);
#382=AXIS2_PLACEMENT_3D('',#568,#459,#460);
#383=AXIS2_PLACEMENT_3D('',#570,#461,#462);
#384=AXIS2_PLACEMENT_3D('',#572,#463,#464);
#385=AXIS2_PLACEMENT_3D('',#574,#465,#466);
#386=AXIS2_PLACEMENT_3D('',#575,#467,#468);
#387=AXIS2_PLACEMENT_3D('',#577,#469,#470);
#388=AXIS2_PLACEMENT_3D('',#579,#471,#472);
#389=AXIS2_PLACEMENT_3D('',#581,#473,#474);
#390=AXIS2_PLACEMENT_3D('',#583,#475,#476);
#391=AXIS2_PLACEMENT_3D('',#584,#477,#478);
#392=AXIS2_PLACEMENT_3D('',#587,#479,#480);
#393=AXIS2_PLACEMENT_3D('',#589,#482,#483);
#394=AXIS2_PLACEMENT_3D('',#590,#484,#485);
#395=AXIS2_PLACEMENT_3D('',#593,#486,#487);
#396=AXIS2_PLACEMENT_3D('',#595,#489,#490);
#397=AXIS2_PLACEMENT_3D('',#596,#491,#492);
#398=AXIS2_PLACEMENT_3D('',#599,#493,#494);
#399=AXIS2_PLACEMENT_3D('',#601,#496,#497);
#400=AXIS2_PLACEMENT_3D('',#602,#498,#499);
#401=AXIS2_PLACEMENT_3D('',#605,#500,#501);
#402=AXIS2_PLACEMENT_3D('',#607,#503,#504);
#403=AXIS2_PLACEMENT_3D('',#608,#505,#506);
#404=AXIS2_PLACEMENT_3D('',#610,#508,#509);
#405=AXIS2_PLACEMENT_3D('',#612,#511,#512);
#406=AXIS2_PLACEMENT_3D('',#614,#514,#515);
#407=DIRECTION('axis',(0.,0.,1.));
#408=DIRECTION('refdir',(1.,0.,0.));
#409=DIRECTION('center_axis',(0.,0.,-1.));
#410=DIRECTION('ref_axis',(-1.,0.,0.));
#411=DIRECTION('center_axis',(0.,0.,1.));
#412=DIRECTION('ref_axis',(-1.,5.55111512312578E-14,0.));
#413=DIRECTION('',(0.,0.,1.));
#414=DIRECTION('center_axis',(0.,0.,-1.));
#415=DIRECTION('ref_axis',(-1.,0.,0.));
#416=DIRECTION('',(0.,0.,-1.));
#417=DIRECTION('center_axis',(0.,0.,-1.));
#418=DIRECTION('ref_axis',(-1.,0.,0.));
#419=DIRECTION('center_axis',(0.,0.,1.));
#420=DIRECTION('ref_axis',(-1.,0.,0.));
#421=DIRECTION('',(0.,0.,1.));
#422=DIRECTION('center_axis',(0.,0.,-1.));
#423=DIRECTION('ref_axis',(-1.,0.,0.));
#424=DIRECTION('',(0.,0.,-1.));
#425=DIRECTION('center_axis',(0.,0.,-1.));
#426=DIRECTION('ref_axis',(-1.,0.,0.));
#427=DIRECTION('center_axis',(0.,0.,1.));
#428=DIRECTION('ref_axis',(-1.,0.,0.));
#429=DIRECTION('',(0.,0.,1.));
#430=DIRECTION('center_axis',(0.,0.,-1.));
#431=DIRECTION('ref_axis',(-1.,0.,0.));
#432=DIRECTION('',(0.,0.,-1.));
#433=DIRECTION('center_axis',(0.,0.,-1.));
#434=DIRECTION('ref_axis',(-1.,0.,0.));
#435=DIRECTION('center_axis',(0.,0.,1.));
#436=DIRECTION('ref_axis',(-1.,0.,0.));
#437=DIRECTION('',(0.,0.,1.));
#438=DIRECTION('center_axis',(0.,0.,-1.));
#439=DIRECTION('ref_axis',(-1.,0.,0.));
#440=DIRECTION('',(0.,0.,-1.));
#441=DIRECTION('center_axis',(0.,1.,0.));
#442=DIRECTION('ref_axis',(0.,0.,1.));
#443=DIRECTION('',(1.,0.,0.));
#444=DIRECTION('',(1.,0.,0.));
#445=DIRECTION('center_axis',(1.,0.,0.));
#446=DIRECTION('ref_axis',(0.,0.,-1.));
#447=DIRECTION('',(0.,-1.,0.));
#448=DIRECTION('',(0.,-1.,0.));
#449=DIRECTION('center_axis',(0.,-1.,0.));
#450=DIRECTION('ref_axis',(0.,0.,-1.));
#451=DIRECTION('',(-1.,0.,0.));
#452=DIRECTION('',(-1.,0.,0.));
#453=DIRECTION('center_axis',(-1.,0.,0.));
#454=DIRECTION('ref_axis',(0.,0.,1.));
#455=DIRECTION('',(0.,1.,0.));
#456=DIRECTION('',(0.,1.,0.));
#457=DIRECTION('center_axis',(0.,0.,-1.));
#458=DIRECTION('ref_axis',(-1.,0.,0.));
#459=DIRECTION('center_axis',(0.,0.,1.));
#460=DIRECTION('ref_axis',(1.,0.,0.));
#461=DIRECTION('center_axis',(0.,0.,1.));
#462=DIRECTION('ref_axis',(1.,0.,0.));
#463=DIRECTION('center_axis',(0.,0.,1.));
#464=DIRECTION('ref_axis',(1.,0.,0.));
#465=DIRECTION('center_axis',(0.,0.,1.));
#466=DIRECTION('ref_axis',(1.,0.,0.));
#467=DIRECTION('center_axis',(0.,0.,-1.));
#468=DIRECTION('ref_axis',(-1.,0.,0.));
#469=DIRECTION('center_axis',(0.,0.,-1.));
#470=DIRECTION('ref_axis',(-1.,0.,0.));
#471=DIRECTION('center_axis',(0.,0.,-1.));
#472=DIRECTION('ref_axis',(-1.,0.,0.));
#473=DIRECTION('center_axis',(0.,0.,-1.));
#474=DIRECTION('ref_axis',(-1.,0.,0.));
#475=DIRECTION('center_axis',(0.,0.,-1.));
#476=DIRECTION('ref_axis',(-1.,0.,0.));
#477=DIRECTION('center_axis',(0.,0.,-1.));
#478=DIRECTION('ref_axis',(-1.,0.,0.));
#479=DIRECTION('center_axis',(0.,0.,1.));
#480=DIRECTION('ref_axis',(-1.,0.,0.));
#481=DIRECTION('',(0.,0.,-1.));
#482=DIRECTION('center_axis',(0.,0.,1.));
#483=DIRECTION('ref_axis',(-1.,0.,0.));
#484=DIRECTION('center_axis',(0.,0.,-1.));
#485=DIRECTION('ref_axis',(-1.,0.,0.));
#486=DIRECTION('center_axis',(0.,0.,1.));
#487=DIRECTION('ref_axis',(-1.,0.,0.));
#488=DIRECTION('',(0.,0.,-1.));
#489=DIRECTION('center_axis',(0.,0.,1.));
#490=DIRECTION('ref_axis',(-1.,0.,0.));
#491=DIRECTION('center_axis',(0.,0.,-1.));
#492=DIRECTION('ref_axis',(-1.,0.,0.));
#493=DIRECTION('center_axis',(0.,0.,1.));
#494=DIRECTION('ref_axis',(-1.,0.,0.));
#495=DIRECTION('',(0.,0.,-1.));
#496=DIRECTION('center_axis',(0.,0.,1.));
#497=DIRECTION('ref_axis',(-1.,0.,0.));
#498=DIRECTION('center_axis',(0.,0.,-1.));
#499=DIRECTION('ref_axis',(-1.,0.,0.));
#500=DIRECTION('center_axis',(0.,0.,1.));
#501=DIRECTION('ref_axis',(-1.,0.,0.));
#502=DIRECTION('',(0.,0.,-1.));
#503=DIRECTION('center_axis',(0.,0.,1.));
#504=DIRECTION('ref_axis',(-1.,0.,0.));
#505=DIRECTION('center_axis',(0.,0.,1.));
#506=DIRECTION('ref_axis',(1.,0.,0.));
#507=DIRECTION('',(-0.707106781186547,-8.65956056235492E-17,0.707106781186549));
#508=DIRECTION('center_axis',(0.,0.,1.));
#509=DIRECTION('ref_axis',(1.,0.,0.));
#510=DIRECTION('',(-0.70710678118655,-8.65956056235496E-17,0.707106781186545));
#511=DIRECTION('center_axis',(0.,0.,1.));
#512=DIRECTION('ref_axis',(1.,0.,0.));
#513=DIRECTION('',(-0.70710678118655,-8.65956056235496E-17,0.707106781186545));
#514=DIRECTION('center_axis',(0.,0.,1.));
#515=DIRECTION('ref_axis',(1.,0.,0.));
#516=DIRECTION('',(-0.707106781186547,-8.65956056235492E-17,0.707106781186549));
#517=CARTESIAN_POINT('',(0.,0.,0.));
#518=CARTESIAN_POINT('Origin',(-114.5,114.5,3.));
#519=CARTESIAN_POINT('',(-114.5,117.5,3.));
#520=CARTESIAN_POINT('',(-117.5,114.5,3.));
#521=CARTESIAN_POINT('Origin',(-114.5,114.5,3.));
#522=CARTESIAN_POINT('',(-114.5,117.5,0.));
#523=CARTESIAN_POINT('',(-114.5,117.5,3.));
#524=CARTESIAN_POINT('',(-117.5,114.5,0.));
#525=CARTESIAN_POINT('Origin',(-114.5,114.5,0.));
#526=CARTESIAN_POINT('',(-117.5,114.5,3.));
#527=CARTESIAN_POINT('Origin',(114.5,114.5,3.));
#528=CARTESIAN_POINT('',(117.5,114.5,3.));
#529=CARTESIAN_POINT('',(114.5,117.5,3.));
#530=CARTESIAN_POINT('Origin',(114.5,114.5,3.));
#531=CARTESIAN_POINT('',(117.5,114.5,0.));
#532=CARTESIAN_POINT('',(117.5,114.5,3.));
#533=CARTESIAN_POINT('',(114.5,117.5,0.));
#534=CARTESIAN_POINT('Origin',(114.5,114.5,0.));
#535=CARTESIAN_POINT('',(114.5,117.5,3.));
#536=CARTESIAN_POINT('Origin',(114.5,-114.5,3.));
#537=CARTESIAN_POINT('',(114.5,-117.5,3.));
#538=CARTESIAN_POINT('',(117.5,-114.5,3.));
#539=CARTESIAN_POINT('Origin',(114.5,-114.5,3.));
#540=CARTESIAN_POINT('',(114.5,-117.5,0.));
#541=CARTESIAN_POINT('',(114.5,-117.5,3.));
#542=CARTESIAN_POINT('',(117.5,-114.5,0.));
#543=CARTESIAN_POINT('Origin',(114.5,-114.5,0.));
#544=CARTESIAN_POINT('',(117.5,-114.5,3.));
#545=CARTESIAN_POINT('Origin',(-114.5,-114.5,3.));
#546=CARTESIAN_POINT('',(-117.5,-114.5,3.));
#547=CARTESIAN_POINT('',(-114.5,-117.5,3.));
#548=CARTESIAN_POINT('Origin',(-114.5,-114.5,3.));
#549=CARTESIAN_POINT('',(-117.5,-114.5,0.));
#550=CARTESIAN_POINT('',(-117.5,-114.5,3.));
#551=CARTESIAN_POINT('',(-114.5,-117.5,0.));
#552=CARTESIAN_POINT('Origin',(-114.5,-114.5,0.));
#553=CARTESIAN_POINT('',(-114.5,-117.5,3.));
#554=CARTESIAN_POINT('Origin',(-117.5,-117.5,3.));
#555=CARTESIAN_POINT('',(-117.5,-117.5,3.));
#556=CARTESIAN_POINT('',(-117.5,-117.5,0.));
#557=CARTESIAN_POINT('Origin',(-117.5,-117.5,3.));
#558=CARTESIAN_POINT('',(-117.5,-117.5,0.));
#559=CARTESIAN_POINT('',(-117.5,-117.5,3.));
#560=CARTESIAN_POINT('Origin',(-117.5,117.5,3.));
#561=CARTESIAN_POINT('',(-117.5,117.5,0.));
#562=CARTESIAN_POINT('',(-117.5,117.5,3.));
#563=CARTESIAN_POINT('Origin',(117.5,-117.5,3.));
#564=CARTESIAN_POINT('',(117.5,-117.5,3.));
#565=CARTESIAN_POINT('',(117.5,-117.5,0.));
#566=CARTESIAN_POINT('Origin',(0.,0.,0.));
#567=CARTESIAN_POINT('',(87.1,-85.,0.));
#568=CARTESIAN_POINT('Origin',(85.,-85.,0.));
#569=CARTESIAN_POINT('',(87.1,85.,0.));
#570=CARTESIAN_POINT('Origin',(85.,85.,0.));
#571=CARTESIAN_POINT('',(-82.9,85.,0.));
#572=CARTESIAN_POINT('Origin',(-85.,85.,0.));
#573=CARTESIAN_POINT('',(-82.9,-85.,0.));
#574=CARTESIAN_POINT('Origin',(-85.,-85.,0.));
#575=CARTESIAN_POINT('Origin',(0.,0.,3.));
#576=CARTESIAN_POINT('',(-89.9,85.,3.));
#577=CARTESIAN_POINT('Origin',(-85.,85.,3.));
#578=CARTESIAN_POINT('',(80.1,85.,3.));
#579=CARTESIAN_POINT('Origin',(85.,85.,3.));
#580=CARTESIAN_POINT('',(80.1,-85.,3.));
#581=CARTESIAN_POINT('Origin',(85.,-85.,3.));
#582=CARTESIAN_POINT('',(-89.9,-85.,3.));
#583=CARTESIAN_POINT('Origin',(-85.,-85.,3.));
#584=CARTESIAN_POINT('Origin',(-85.,85.,3.));
#585=CARTESIAN_POINT('',(-87.1,85.,0.199999999999954));
#586=CARTESIAN_POINT('',(-82.9,85.,0.199999999999954));
#587=CARTESIAN_POINT('Origin',(-85.,85.,0.199999999999954));
#588=CARTESIAN_POINT('',(-82.9,85.,3.));
#589=CARTESIAN_POINT('Origin',(-85.,85.,0.199999999999954));
#590=CARTESIAN_POINT('Origin',(85.,85.,3.));
#591=CARTESIAN_POINT('',(82.9,85.,0.200000000000037));
#592=CARTESIAN_POINT('',(87.1,85.,0.200000000000037));
#593=CARTESIAN_POINT('Origin',(85.,85.,0.200000000000037));
#594=CARTESIAN_POINT('',(87.1,85.,3.));
#595=CARTESIAN_POINT('Origin',(85.,85.,0.200000000000037));
#596=CARTESIAN_POINT('Origin',(-85.,-85.,3.));
#597=CARTESIAN_POINT('',(-87.1,-85.,0.199999999999954));
#598=CARTESIAN_POINT('',(-82.9,-85.,0.199999999999954));
#599=CARTESIAN_POINT('Origin',(-85.,-85.,0.199999999999954));
#600=CARTESIAN_POINT('',(-82.9,-85.,3.));
#601=CARTESIAN_POINT('Origin',(-85.,-85.,0.199999999999954));
#602=CARTESIAN_POINT('Origin',(85.,-85.,3.));
#603=CARTESIAN_POINT('',(82.9,-85.,0.200000000000037));
#604=CARTESIAN_POINT('',(87.1,-85.,0.200000000000037));
#605=CARTESIAN_POINT('Origin',(85.,-85.,0.200000000000037));
#606=CARTESIAN_POINT('',(87.1,-85.,3.));
#607=CARTESIAN_POINT('Origin',(85.,-85.,0.200000000000037));
#608=CARTESIAN_POINT('Origin',(-85.,-85.,0.199999999999954));
#609=CARTESIAN_POINT('',(-87.1,-85.,0.199999999999954));
#610=CARTESIAN_POINT('Origin',(85.,-85.,0.200000000000037));
#611=CARTESIAN_POINT('',(82.9,-85.,0.200000000000037));
#612=CARTESIAN_POINT('Origin',(85.,85.,0.200000000000037));
#613=CARTESIAN_POINT('',(82.9,85.,0.200000000000037));
#614=CARTESIAN_POINT('Origin',(-85.,85.,0.199999999999954));
#615=CARTESIAN_POINT('',(-87.1,85.,0.199999999999954));
#616=UNCERTAINTY_MEASURE_WITH_UNIT(LENGTH_MEASURE(0.01),#620,
'DISTANCE_ACCURACY_VALUE',
'Maximum model space distance between geometric entities at asserted c
onnectivities');
#617=UNCERTAINTY_MEASURE_WITH_UNIT(LENGTH_MEASURE(0.01),#620,
'DISTANCE_ACCURACY_VALUE',
'Maximum model space distance between geometric entities at asserted c
onnectivities');
#618=(
GEOMETRIC_REPRESENTATION_CONTEXT(3)
GLOBAL_UNCERTAINTY_ASSIGNED_CONTEXT((#616))
GLOBAL_UNIT_ASSIGNED_CONTEXT((#620,#622,#623))
REPRESENTATION_CONTEXT('','3D')
);
#619=(
GEOMETRIC_REPRESENTATION_CONTEXT(3)
GLOBAL_UNCERTAINTY_ASSIGNED_CONTEXT((#617))
GLOBAL_UNIT_ASSIGNED_CONTEXT((#620,#622,#623))
REPRESENTATION_CONTEXT('','3D')
);
#620=(
LENGTH_UNIT()
NAMED_UNIT(*)
SI_UNIT(.MILLI.,.METRE.)
);
#621=(
LENGTH_UNIT()
NAMED_UNIT(*)
SI_UNIT($,.METRE.)
);
#622=(
NAMED_UNIT(*)
PLANE_ANGLE_UNIT()
SI_UNIT($,.RADIAN.)
);
#623=(
NAMED_UNIT(*)
SI_UNIT($,.STERADIAN.)
SOLID_ANGLE_UNIT()
);
#624=SHAPE_DEFINITION_REPRESENTATION(#625,#626);
#625=PRODUCT_DEFINITION_SHAPE('',$,#628);
#626=SHAPE_REPRESENTATION('',(#364),#618);
#627=PRODUCT_DEFINITION_CONTEXT('part definition',#632,'design');
#628=PRODUCT_DEFINITION('(Unsaved)','(Unsaved)',#629,#627);
#629=PRODUCT_DEFINITION_FORMATION('',$,#634);
#630=PRODUCT_RELATED_PRODUCT_CATEGORY('(Unsaved)','(Unsaved)',(#634));
#631=APPLICATION_PROTOCOL_DEFINITION('international standard',
'automotive_design',2009,#632);
#632=APPLICATION_CONTEXT(
'Core Data for Automotive Mechanical Design Process');
#633=PRODUCT_CONTEXT('part definition',#632,'mechanical');
#634=PRODUCT('(Unsaved)','(Unsaved)',$,(#633));
#635=PRESENTATION_STYLE_ASSIGNMENT((#637));
#636=PRESENTATION_STYLE_ASSIGNMENT((#638));
#637=SURFACE_STYLE_USAGE(.BOTH.,#639);
#638=SURFACE_STYLE_USAGE(.BOTH.,#640);
#639=SURFACE_SIDE_STYLE('',(#641));
#640=SURFACE_SIDE_STYLE('',(#642));
#641=SURFACE_STYLE_FILL_AREA(#643);
#642=SURFACE_STYLE_FILL_AREA(#644);
#643=FILL_AREA_STYLE('Plastic - Glossy (Black)',(#645));
#644=FILL_AREA_STYLE('Opaque(209,209,209)',(#646));
#645=FILL_AREA_STYLE_COLOUR('Plastic - Glossy (Black)',#647);
#646=FILL_AREA_STYLE_COLOUR('Opaque(209,209,209)',#648);
#647=COLOUR_RGB('Plastic - Glossy (Black)',0.0980392156862745,0.0980392156862745,
0.0980392156862745);
#648=COLOUR_RGB('Opaque(209,209,209)',0.819607843137255,0.819607843137255,
0.819607843137255);
ENDSEC;
END-ISO-10303-21;
