ISO-10303-21;
HEADER;
FILE_DESCRIPTION (( 'STEP AP203' ),
    '1' );
FILE_NAME ('Bague disque frein arrière 520i sur 323i.STEP',
    '2019-09-02T15:25:27',
    ( '' ),
    ( '' ),
    'SwSTEP 2.0',
    'SolidWorks 2018',
    '' );
FILE_SCHEMA (( 'CONFIG_CONTROL_DESIGN' ));
ENDSEC;

DATA;
#1 = APPROVAL_DATE_TIME ( #66, #65 ) ;
#2 = CARTESIAN_POINT ( 'NONE',  ( 31.00000000000000000, 0.0000000000000000000, 3.499999999999906741 ) ) ;
#3 = CARTESIAN_POINT ( 'NONE',  ( 0.0000000000000000000, 0.0000000000000000000, 6.500000000000000000 ) ) ;
#4 = CC_DESIGN_SECURITY_CLASSIFICATION ( #172, ( #112 ) ) ;
#5 = PRODUCT_DEFINITION ( 'UNKNOWN', '', #112, #15 ) ;
#6 = DIRECTION ( 'NONE',  ( 1.000000000000000000, 0.0000000000000000000, 0.0000000000000000000 ) ) ;
#7 = CARTESIAN_POINT ( 'NONE',  ( 0.0000000000000000000, 0.0000000000000000000, 6.500000000000000000 ) ) ;
#8 = FACE_OUTER_BOUND ( 'NONE', #176, .T. ) ;
#9 = CARTESIAN_POINT ( 'NONE',  ( 31.00000000000000000, 3.796405077356794326E-15, 6.500000000000000000 ) ) ;
#10 = DATE_AND_TIME ( #229, #269 ) ;
#11 = EDGE_CURVE ( 'NONE', #188, #169, #96, .T. ) ;
#12 = CIRCLE ( 'NONE', #37, 31.00000000000000000 ) ;
#13 = ADVANCED_BREP_SHAPE_REPRESENTATION ( 'Bague disque frein arriÞre 520i sur 323i', ( #185, #260 ), #82 ) ;
#14 =( NAMED_UNIT ( * ) PLANE_ANGLE_UNIT ( ) SI_UNIT ( $, .RADIAN. ) );
#15 = DESIGN_CONTEXT ( 'detailed design', #200, 'design' ) ;
#16 = ORGANIZATION ( 'UNSPECIFIED', 'UNSPECIFIED', '' ) ;
#17 = AXIS2_PLACEMENT_3D ( 'NONE', #90, #73, #118 ) ;
#18 = VERTEX_POINT ( 'NONE', #47 ) ;
#19 = EDGE_CURVE ( 'NONE', #263, #188, #143, .T. ) ;
#20 = PLANE ( 'NONE',  #86 ) ;
#21 = EDGE_CURVE ( 'NONE', #263, #289, #163, .T. ) ;
#22 = DIRECTION ( 'NONE',  ( 0.7071067811865474617, 0.0000000000000000000, 0.7071067811865474617 ) ) ;
#23 = VECTOR ( 'NONE', #81, 1000.000000000000000 ) ;
#24 = ORIENTED_EDGE ( 'NONE', *, *, #224, .T. ) ;
#25 = DIRECTION ( 'NONE',  ( -0.0000000000000000000, -0.0000000000000000000, -1.000000000000000000 ) ) ;
#26 = CARTESIAN_POINT ( 'NONE',  ( -31.00000000000000000, 3.796405077356795115E-15, 3.499999999999906741 ) ) ;
#27 = DIRECTION ( 'NONE',  ( -0.0000000000000000000, -0.0000000000000000000, -1.000000000000000000 ) ) ;
#28 = DIRECTION ( 'NONE',  ( -0.0000000000000000000, -0.0000000000000000000, -1.000000000000000000 ) ) ;
#29 = DIRECTION ( 'NONE',  ( 0.0000000000000000000, 0.0000000000000000000, 1.000000000000000000 ) ) ;
#30 = DIRECTION ( 'NONE',  ( -1.000000000000000000, 0.0000000000000000000, 0.0000000000000000000 ) ) ;
#31 = ORIENTED_EDGE ( 'NONE', *, *, #216, .T. ) ;
#32 = SECURITY_CLASSIFICATION_LEVEL ( 'unclassified' ) ;
#33 = CC_DESIGN_APPROVAL ( #65, ( #5 ) ) ;
#34 = CYLINDRICAL_SURFACE ( 'NONE', #115, 37.45000000000000284 ) ;
#35 = LOCAL_TIME ( 17, 25, 27.00000000000000000, #192 ) ;
#36 = PERSON_AND_ORGANIZATION ( #210, #16 ) ;
#37 = AXIS2_PLACEMENT_3D ( 'NONE', #127, #52, #56 ) ;
#38 = EDGE_LOOP ( 'NONE', ( #249, #245 ) ) ;
#39 = EDGE_CURVE ( 'NONE', #169, #289, #193, .T. ) ;
#40 = ADVANCED_FACE ( 'NONE', ( #55, #274 ), #20, .F. ) ;
#41 = EDGE_CURVE ( 'NONE', #164, #102, #183, .T. ) ;
#42 = ORIENTED_EDGE ( 'NONE', *, *, #216, .F. ) ;
#43 = CARTESIAN_POINT ( 'NONE',  ( 0.0000000000000000000, 0.0000000000000000000, 0.0000000000000000000 ) ) ;
#44 = DATE_AND_TIME ( #113, #225 ) ;
#45 = DIRECTION ( 'NONE',  ( 0.0000000000000000000, 0.0000000000000000000, 1.000000000000000000 ) ) ;
#46 = DIRECTION ( 'NONE',  ( 0.0000000000000000000, 0.0000000000000000000, 1.000000000000000000 ) ) ;
#47 = CARTESIAN_POINT ( 'NONE',  ( 31.00000000000000000, 3.796405077356794326E-15, 0.0000000000000000000 ) ) ;
#48 = ORIENTED_EDGE ( 'NONE', *, *, #19, .T. ) ;
#49 = ORIENTED_EDGE ( 'NONE', *, *, #60, .F. ) ;
#50 = DIRECTION ( 'NONE',  ( 1.000000000000000000, 0.0000000000000000000, 0.0000000000000000000 ) ) ;
#51 = CC_DESIGN_PERSON_AND_ORGANIZATION_ASSIGNMENT ( #243, #59, ( #5 ) ) ;
#52 = DIRECTION ( 'NONE',  ( 0.0000000000000000000, 0.0000000000000000000, 1.000000000000000000 ) ) ;
#53 = DIRECTION ( 'NONE',  ( -1.000000000000000000, 0.0000000000000000000, 0.0000000000000000000 ) ) ;
#54 = COORDINATED_UNIVERSAL_TIME_OFFSET ( 1, 0, .AHEAD. ) ;
#55 = FACE_OUTER_BOUND ( 'NONE', #295, .T. ) ;
#56 = DIRECTION ( 'NONE',  ( 1.000000000000000000, 0.0000000000000000000, 0.0000000000000000000 ) ) ;
#57 = VERTEX_POINT ( 'NONE', #280 ) ;
#58 = AXIS2_PLACEMENT_3D ( 'NONE', #275, #45, #167 ) ;
#59 = PERSON_AND_ORGANIZATION_ROLE ( 'creator' ) ;
#60 = EDGE_CURVE ( 'NONE', #213, #102, #74, .T. ) ;
#61 = EDGE_LOOP ( 'NONE', ( #67, #184, #155, #93 ) ) ;
#62 = APPROVAL_STATUS ( 'not_yet_approved' ) ;
#63 = ORIENTED_EDGE ( 'NONE', *, *, #60, .T. ) ;
#64 = PERSON_AND_ORGANIZATION_ROLE ( 'creator' ) ;
#65 = APPROVAL ( #198, 'UNSPECIFIED' ) ;
#66 = DATE_AND_TIME ( #211, #253 ) ;
#67 = ORIENTED_EDGE ( 'NONE', *, *, #19, .F. ) ;
#68 = EDGE_LOOP ( 'NONE', ( #24, #267 ) ) ;
#69 = ADVANCED_FACE ( 'NONE', ( #88, #165 ), #186, .T. ) ;
#70 = AXIS2_PLACEMENT_3D ( 'NONE', #122, #76, #30 ) ;
#71 = CARTESIAN_POINT ( 'NONE',  ( -37.45000000000000284, 0.0000000000000000000, 6.500000000000000000 ) ) ;
#72 = LINE ( 'NONE', #9, #23 ) ;
#73 = DIRECTION ( 'NONE',  ( -0.0000000000000000000, -0.0000000000000000000, -1.000000000000000000 ) ) ;
#74 = CIRCLE ( 'NONE', #246, 37.45000000000000284 ) ;
#75 = ORIENTED_EDGE ( 'NONE', *, *, #124, .F. ) ;
#76 = DIRECTION ( 'NONE',  ( -0.0000000000000000000, -0.0000000000000000000, -1.000000000000000000 ) ) ;
#77 = DIRECTION ( 'NONE',  ( -0.0000000000000000000, -0.0000000000000000000, -1.000000000000000000 ) ) ;
#78 = CARTESIAN_POINT ( 'NONE',  ( 0.0000000000000000000, 0.0000000000000000000, 0.0000000000000000000 ) ) ;
#79 = CC_DESIGN_DATE_AND_TIME_ASSIGNMENT ( #44, #287, ( #5 ) ) ;
#80 = CIRCLE ( 'NONE', #242, 31.00000000000000000 ) ;
#81 = DIRECTION ( 'NONE',  ( -0.0000000000000000000, -0.0000000000000000000, -1.000000000000000000 ) ) ;
#82 =( GEOMETRIC_REPRESENTATION_CONTEXT ( 3 ) GLOBAL_UNCERTAINTY_ASSIGNED_CONTEXT ( ( #290 ) ) GLOBAL_UNIT_ASSIGNED_CONTEXT ( ( #134, #14, #266 ) ) REPRESENTATION_CONTEXT ( 'NONE', 'WORKASPACE' ) );
#83 = APPROVAL_DATE_TIME ( #191, #214 ) ;
#84 = LINE ( 'NONE', #240, #92 ) ;
#85 = ORIENTED_EDGE ( 'NONE', *, *, #139, .F. ) ;
#86 = AXIS2_PLACEMENT_3D ( 'NONE', #123, #125, #254 ) ;
#87 = ADVANCED_FACE ( 'NONE', ( #196 ), #179, .F. ) ;
#88 = FACE_BOUND ( 'NONE', #38, .T. ) ;
#89 = AXIS2_PLACEMENT_3D ( 'NONE', #91, #46, #256 ) ;
#90 = CARTESIAN_POINT ( 'NONE',  ( 0.0000000000000000000, 0.0000000000000000000, 6.500000000000000000 ) ) ;
#91 = CARTESIAN_POINT ( 'NONE',  ( 0.0000000000000000000, 0.0000000000000000000, 3.499999999999906741 ) ) ;
#92 = VECTOR ( 'NONE', #28, 1000.000000000000000 ) ;
#93 = ORIENTED_EDGE ( 'NONE', *, *, #11, .F. ) ;
#94 = EDGE_LOOP ( 'NONE', ( #230, #197, #226, #42 ) ) ;
#95 = DIRECTION ( 'NONE',  ( 1.000000000000000000, 0.0000000000000000000, 0.0000000000000000000 ) ) ;
#96 = LINE ( 'NONE', #2, #205 ) ;
#97 = CARTESIAN_POINT ( 'NONE',  ( 31.00000000000000000, 3.796405077356794326E-15, 3.499999999999906741 ) ) ;
#98 = DIRECTION ( 'NONE',  ( 1.000000000000000000, 0.0000000000000000000, 0.0000000000000000000 ) ) ;
#99 = DIRECTION ( 'NONE',  ( 0.0000000000000000000, 0.0000000000000000000, 1.000000000000000000 ) ) ;
#100 = DIRECTION ( 'NONE',  ( 1.000000000000000000, 0.0000000000000000000, 0.0000000000000000000 ) ) ;
#101 = PERSON_AND_ORGANIZATION ( #210, #16 ) ;
#102 = VERTEX_POINT ( 'NONE', #171 ) ;
#103 = DATE_TIME_ROLE ( 'classification_date' ) ;
#104 = PERSON_AND_ORGANIZATION_ROLE ( 'design_supplier' ) ;
#105 = DIRECTION ( 'NONE',  ( 1.000000000000000000, 0.0000000000000000000, 0.0000000000000000000 ) ) ;
#106 = AXIS2_PLACEMENT_3D ( 'NONE', #217, #264, #223 ) ;
#107 = PERSON_AND_ORGANIZATION ( #210, #16 ) ;
#108 = APPLICATION_PROTOCOL_DEFINITION ( 'international standard', 'config_control_design', 1994, #244 ) ;
#109 = ORIENTED_EDGE ( 'NONE', *, *, #11, .T. ) ;
#110 = APPROVAL_ROLE ( '' ) ;
#111 = CALENDAR_DATE ( 2019, 2, 9 ) ;
#112 = PRODUCT_DEFINITION_FORMATION_WITH_SPECIFIED_SOURCE ( 'ANY', '', #119, .NOT_KNOWN. ) ;
#113 = CALENDAR_DATE ( 2019, 2, 9 ) ;
#114 = DATE_AND_TIME ( #181, #35 ) ;
#115 = AXIS2_PLACEMENT_3D ( 'NONE', #189, #27, #53 ) ;
#116 = ADVANCED_FACE ( 'NONE', ( #138 ), #271, .F. ) ;
#117 = PERSON_AND_ORGANIZATION ( #210, #16 ) ;
#118 = DIRECTION ( 'NONE',  ( 1.000000000000000000, 0.0000000000000000000, 0.0000000000000000000 ) ) ;
#119 = PRODUCT ( 'Bague disque frein arrière 520i sur 323i', 'Bague disque frein arrière 520i sur 323i', '', ( #291 ) ) ;
#120 = VECTOR ( 'NONE', #237, 1000.000000000000114 ) ;
#121 = CC_DESIGN_PERSON_AND_ORGANIZATION_ASSIGNMENT ( #153, #157, ( #172 ) ) ;
#122 = CARTESIAN_POINT ( 'NONE',  ( 0.0000000000000000000, 0.0000000000000000000, 6.500000000000000000 ) ) ;
#123 = CARTESIAN_POINT ( 'NONE',  ( 0.0000000000000000000, 0.0000000000000000000, 0.0000000000000000000 ) ) ;
#124 = EDGE_CURVE ( 'NONE', #263, #146, #154, .T. ) ;
#125 = DIRECTION ( 'NONE',  ( 0.0000000000000000000, 0.0000000000000000000, 1.000000000000000000 ) ) ;
#126 = AXIS2_PLACEMENT_3D ( 'NONE', #190, #77, #100 ) ;
#127 = CARTESIAN_POINT ( 'NONE',  ( 0.0000000000000000000, 0.0000000000000000000, 0.0000000000000000000 ) ) ;
#128 = CARTESIAN_POINT ( 'NONE',  ( 0.0000000000000000000, 0.0000000000000000000, 3.499999999999906741 ) ) ;
#129 = DIRECTION ( 'NONE',  ( 1.000000000000000000, 0.0000000000000000000, 0.0000000000000000000 ) ) ;
#130 = CIRCLE ( 'NONE', #178, 37.45000000000000284 ) ;
#131 = APPROVAL ( #62, 'UNSPECIFIED' ) ;
#132 = ORIENTED_EDGE ( 'NONE', *, *, #41, .F. ) ;
#133 = CARTESIAN_POINT ( 'NONE',  ( -34.00000000000009237, 4.163799117101012392E-15, 6.500000000000000000 ) ) ;
#134 =( LENGTH_UNIT ( ) NAMED_UNIT ( * ) SI_UNIT ( .MILLI., .METRE. ) );
#135 = APPLICATION_PROTOCOL_DEFINITION ( 'international standard', 'config_control_design', 1994, #200 ) ;
#136 = CIRCLE ( 'NONE', #126, 34.00000000000009237 ) ;
#137 = EDGE_LOOP ( 'NONE', ( #232, #239, #279, #285 ) ) ;
#138 = FACE_OUTER_BOUND ( 'NONE', #206, .T. ) ;
#139 = EDGE_CURVE ( 'NONE', #146, #18, #12, .T. ) ;
#140 = ADVANCED_FACE ( 'NONE', ( #208 ), #34, .T. ) ;
#141 = ORIENTED_EDGE ( 'NONE', *, *, #292, .T. ) ;
#142 = FACE_OUTER_BOUND ( 'NONE', #251, .T. ) ;
#143 = CIRCLE ( 'NONE', #89, 31.00000000000000000 ) ;
#144 = DIRECTION ( 'NONE',  ( 0.0000000000000000000, 0.0000000000000000000, 1.000000000000000000 ) ) ;
#145 = VECTOR ( 'NONE', #215, 1000.000000000000000 ) ;
#146 = VERTEX_POINT ( 'NONE', #222 ) ;
#147 = DIRECTION ( 'NONE',  ( 1.000000000000000000, 0.0000000000000000000, 0.0000000000000000000 ) ) ;
#148 = DIRECTION ( 'NONE',  ( -0.0000000000000000000, -0.0000000000000000000, -1.000000000000000000 ) ) ;
#149 = DIRECTION ( 'NONE',  ( 0.0000000000000000000, 0.0000000000000000000, 1.000000000000000000 ) ) ;
#150 = AXIS2_PLACEMENT_3D ( 'NONE', #7, #173, #194 ) ;
#151 = CIRCLE ( 'NONE', #201, 37.45000000000000284 ) ;
#152 = CARTESIAN_POINT ( 'NONE',  ( -31.00000000000000000, 0.0000000000000000000, 3.499999999999906741 ) ) ;
#153 = PERSON_AND_ORGANIZATION ( #210, #16 ) ;
#154 = LINE ( 'NONE', #241, #257 ) ;
#155 = ORIENTED_EDGE ( 'NONE', *, *, #39, .F. ) ;
#156 = DIRECTION ( 'NONE',  ( 0.0000000000000000000, 0.0000000000000000000, 1.000000000000000000 ) ) ;
#157 = PERSON_AND_ORGANIZATION_ROLE ( 'classification_officer' ) ;
#158 = AXIS2_PLACEMENT_3D ( 'NONE', #281, #170, #50 ) ;
#159 = CONICAL_SURFACE ( 'NONE', #182, 31.00000000000000000, 0.7853981633974482790 ) ;
#160 = APPROVAL_STATUS ( 'not_yet_approved' ) ;
#161 = EDGE_CURVE ( 'NONE', #102, #213, #130, .T. ) ;
#162 = PERSON_AND_ORGANIZATION ( #210, #16 ) ;
#163 = LINE ( 'NONE', #26, #120 ) ;
#164 = VERTEX_POINT ( 'NONE', #284 ) ;
#165 = FACE_OUTER_BOUND ( 'NONE', #68, .T. ) ;
#166 = EDGE_LOOP ( 'NONE', ( #278, #31 ) ) ;
#167 = DIRECTION ( 'NONE',  ( 1.000000000000000000, 0.0000000000000000000, -0.0000000000000000000 ) ) ;
#168 = EDGE_CURVE ( 'NONE', #188, #263, #80, .T. ) ;
#169 = VERTEX_POINT ( 'NONE', #195 ) ;
#170 = DIRECTION ( 'NONE',  ( 0.0000000000000000000, 0.0000000000000000000, 1.000000000000000000 ) ) ;
#171 = CARTESIAN_POINT ( 'NONE',  ( -37.45000000000000284, 0.0000000000000000000, 0.0000000000000000000 ) ) ;
#172 = SECURITY_CLASSIFICATION ( '', '', #32 ) ;
#173 = DIRECTION ( 'NONE',  ( -0.0000000000000000000, -0.0000000000000000000, -1.000000000000000000 ) ) ;
#174 = LOCAL_TIME ( 17, 25, 27.00000000000000000, #262 ) ;
#175 = COORDINATED_UNIVERSAL_TIME_OFFSET ( 1, 0, .AHEAD. ) ;
#176 = EDGE_LOOP ( 'NONE', ( #258, #212, #63, #132 ) ) ;
#177 = CARTESIAN_POINT ( 'NONE',  ( 0.0000000000000000000, 0.0000000000000000000, 6.500000000000000000 ) ) ;
#178 = AXIS2_PLACEMENT_3D ( 'NONE', #78, #29, #95 ) ;
#179 = CYLINDRICAL_SURFACE ( 'NONE', #231, 31.00000000000000000 ) ;
#180 = CC_DESIGN_DATE_AND_TIME_ASSIGNMENT ( #10, #103, ( #172 ) ) ;
#181 = CALENDAR_DATE ( 2019, 2, 9 ) ;
#182 = AXIS2_PLACEMENT_3D ( 'NONE', #128, #149, #6 ) ;
#183 = LINE ( 'NONE', #71, #145 ) ;
#184 = ORIENTED_EDGE ( 'NONE', *, *, #21, .T. ) ;
#185 = MANIFOLD_SOLID_BREP ( 'Chanfrein1', #199 ) ;
#186 = PLANE ( 'NONE',  #58 ) ;
#187 = DIRECTION ( 'NONE',  ( -1.000000000000000000, 0.0000000000000000000, 0.0000000000000000000 ) ) ;
#188 = VERTEX_POINT ( 'NONE', #97 ) ;
#189 = CARTESIAN_POINT ( 'NONE',  ( 0.0000000000000000000, 0.0000000000000000000, 6.500000000000000000 ) ) ;
#190 = CARTESIAN_POINT ( 'NONE',  ( 0.0000000000000000000, 0.0000000000000000000, 6.500000000000000000 ) ) ;
#191 = DATE_AND_TIME ( #111, #174 ) ;
#192 = COORDINATED_UNIVERSAL_TIME_OFFSET ( 1, 0, .AHEAD. ) ;
#193 = CIRCLE ( 'NONE', #17, 34.00000000000009237 ) ;
#194 = DIRECTION ( 'NONE',  ( -1.000000000000000000, 0.0000000000000000000, 0.0000000000000000000 ) ) ;
#195 = CARTESIAN_POINT ( 'NONE',  ( 34.00000000000009237, 0.0000000000000000000, 6.500000000000000000 ) ) ;
#196 = FACE_OUTER_BOUND ( 'NONE', #94, .T. ) ;
#197 = ORIENTED_EDGE ( 'NONE', *, *, #168, .T. ) ;
#198 = APPROVAL_STATUS ( 'not_yet_approved' ) ;
#199 = CLOSED_SHELL ( 'NONE', ( #233, #116, #255, #69, #40, #140, #87, #209 ) ) ;
#200 = APPLICATION_CONTEXT ( 'configuration controlled 3d designs of mechanical parts and assemblies' ) ;
#201 = AXIS2_PLACEMENT_3D ( 'NONE', #177, #268, #105 ) ;
#202 = PRODUCT_RELATED_PRODUCT_CATEGORY ( 'detail', '', ( #119 ) ) ;
#203 = APPROVAL_ROLE ( '' ) ;
#204 = SHAPE_DEFINITION_REPRESENTATION ( #299, #13 ) ;
#205 = VECTOR ( 'NONE', #22, 1000.000000000000114 ) ;
#206 = EDGE_LOOP ( 'NONE', ( #48, #141, #85, #75 ) ) ;
#207 = PERSON_AND_ORGANIZATION ( #210, #16 ) ;
#208 = FACE_OUTER_BOUND ( 'NONE', #137, .T. ) ;
#209 = ADVANCED_FACE ( 'NONE', ( #142 ), #283, .F. ) ;
#210 = PERSON ( 'UNSPECIFIED', 'UNSPECIFIED', 'UNSPECIFIED', ('UNSPECIFIED'), ('UNSPECIFIED'), ('UNSPECIFIED') ) ;
#211 = CALENDAR_DATE ( 2019, 2, 9 ) ;
#212 = ORIENTED_EDGE ( 'NONE', *, *, #228, .T. ) ;
#213 = VERTEX_POINT ( 'NONE', #221 ) ;
#214 = APPROVAL ( #160, 'UNSPECIFIED' ) ;
#215 = DIRECTION ( 'NONE',  ( -0.0000000000000000000, -0.0000000000000000000, -1.000000000000000000 ) ) ;
#216 = EDGE_CURVE ( 'NONE', #18, #146, #220, .T. ) ;
#217 = CARTESIAN_POINT ( 'NONE',  ( 0.0000000000000000000, 0.0000000000000000000, 0.0000000000000000000 ) ) ;
#218 = EDGE_CURVE ( 'NONE', #289, #169, #136, .T. ) ;
#219 = DIRECTION ( 'NONE',  ( 0.0000000000000000000, 0.0000000000000000000, 1.000000000000000000 ) ) ;
#220 = CIRCLE ( 'NONE', #106, 31.00000000000000000 ) ;
#221 = CARTESIAN_POINT ( 'NONE',  ( 37.45000000000000284, 4.586302262806837294E-15, 0.0000000000000000000 ) ) ;
#222 = CARTESIAN_POINT ( 'NONE',  ( -31.00000000000000000, 0.0000000000000000000, 0.0000000000000000000 ) ) ;
#223 = DIRECTION ( 'NONE',  ( 1.000000000000000000, 0.0000000000000000000, 0.0000000000000000000 ) ) ;
#224 = EDGE_CURVE ( 'NONE', #164, #57, #273, .T. ) ;
#225 = LOCAL_TIME ( 17, 25, 27.00000000000000000, #175 ) ;
#226 = ORIENTED_EDGE ( 'NONE', *, *, #124, .T. ) ;
#227 = APPROVAL_ROLE ( '' ) ;
#228 = EDGE_CURVE ( 'NONE', #57, #213, #84, .T. ) ;
#229 = CALENDAR_DATE ( 2019, 2, 9 ) ;
#230 = ORIENTED_EDGE ( 'NONE', *, *, #292, .F. ) ;
#231 = AXIS2_PLACEMENT_3D ( 'NONE', #3, #25, #187 ) ;
#232 = ORIENTED_EDGE ( 'NONE', *, *, #228, .F. ) ;
#233 = ADVANCED_FACE ( 'NONE', ( #294 ), #159, .F. ) ;
#234 = APPROVAL_PERSON_ORGANIZATION ( #107, #131, #110 ) ;
#235 = CYLINDRICAL_SURFACE ( 'NONE', #150, 37.45000000000000284 ) ;
#236 = CC_DESIGN_APPROVAL ( #131, ( #112 ) ) ;
#237 = DIRECTION ( 'NONE',  ( -0.7071067811865474617, 8.659560562354932858E-17, 0.7071067811865474617 ) ) ;
#238 = ORIENTED_EDGE ( 'NONE', *, *, #168, .F. ) ;
#239 = ORIENTED_EDGE ( 'NONE', *, *, #224, .F. ) ;
#240 = CARTESIAN_POINT ( 'NONE',  ( 37.45000000000000284, 4.586302262806837294E-15, 6.500000000000000000 ) ) ;
#241 = CARTESIAN_POINT ( 'NONE',  ( -31.00000000000000000, 0.0000000000000000000, 6.500000000000000000 ) ) ;
#242 = AXIS2_PLACEMENT_3D ( 'NONE', #282, #99, #98 ) ;
#243 = PERSON_AND_ORGANIZATION ( #210, #16 ) ;
#244 = APPLICATION_CONTEXT ( 'configuration controlled 3d designs of mechanical parts and assemblies' ) ;
#245 = ORIENTED_EDGE ( 'NONE', *, *, #218, .T. ) ;
#246 = AXIS2_PLACEMENT_3D ( 'NONE', #43, #144, #147 ) ;
#247 = PERSON_AND_ORGANIZATION_ROLE ( 'design_owner' ) ;
#248 = COORDINATED_UNIVERSAL_TIME_OFFSET ( 1, 0, .AHEAD. ) ;
#249 = ORIENTED_EDGE ( 'NONE', *, *, #39, .T. ) ;
#250 = CC_DESIGN_PERSON_AND_ORGANIZATION_ASSIGNMENT ( #207, #64, ( #112 ) ) ;
#251 = EDGE_LOOP ( 'NONE', ( #297, #238, #109, #288 ) ) ;
#252 = CC_DESIGN_PERSON_AND_ORGANIZATION_ASSIGNMENT ( #101, #247, ( #119 ) ) ;
#253 = LOCAL_TIME ( 17, 25, 27.00000000000000000, #248 ) ;
#254 = DIRECTION ( 'NONE',  ( 1.000000000000000000, 0.0000000000000000000, -0.0000000000000000000 ) ) ;
#255 = ADVANCED_FACE ( 'NONE', ( #8 ), #235, .T. ) ;
#256 = DIRECTION ( 'NONE',  ( 1.000000000000000000, 0.0000000000000000000, 0.0000000000000000000 ) ) ;
#257 = VECTOR ( 'NONE', #148, 1000.000000000000000 ) ;
#258 = ORIENTED_EDGE ( 'NONE', *, *, #276, .F. ) ;
#259 = CC_DESIGN_APPROVAL ( #214, ( #172 ) ) ;
#260 = AXIS2_PLACEMENT_3D ( 'NONE', #270, #156, #286 ) ;
#261 = CARTESIAN_POINT ( 'NONE',  ( 0.0000000000000000000, 0.0000000000000000000, 3.499999999999906741 ) ) ;
#262 = COORDINATED_UNIVERSAL_TIME_OFFSET ( 1, 0, .AHEAD. ) ;
#263 = VERTEX_POINT ( 'NONE', #152 ) ;
#264 = DIRECTION ( 'NONE',  ( 0.0000000000000000000, 0.0000000000000000000, 1.000000000000000000 ) ) ;
#265 = CC_DESIGN_PERSON_AND_ORGANIZATION_ASSIGNMENT ( #117, #104, ( #112 ) ) ;
#266 =( NAMED_UNIT ( * ) SI_UNIT ( $, .STERADIAN. ) SOLID_ANGLE_UNIT ( ) );
#267 = ORIENTED_EDGE ( 'NONE', *, *, #276, .T. ) ;
#268 = DIRECTION ( 'NONE',  ( 0.0000000000000000000, 0.0000000000000000000, 1.000000000000000000 ) ) ;
#269 = LOCAL_TIME ( 17, 25, 27.00000000000000000, #54 ) ;
#270 = CARTESIAN_POINT ( 'NONE',  ( 0.0000000000000000000, 0.0000000000000000000, 0.0000000000000000000 ) ) ;
#271 = CYLINDRICAL_SURFACE ( 'NONE', #70, 31.00000000000000000 ) ;
#272 = APPROVAL_DATE_TIME ( #114, #131 ) ;
#273 = CIRCLE ( 'NONE', #158, 37.45000000000000284 ) ;
#274 = FACE_BOUND ( 'NONE', #166, .T. ) ;
#275 = CARTESIAN_POINT ( 'NONE',  ( 0.0000000000000000000, 0.0000000000000000000, 6.500000000000000000 ) ) ;
#276 = EDGE_CURVE ( 'NONE', #57, #164, #151, .T. ) ;
#277 = APPROVAL_PERSON_ORGANIZATION ( #36, #65, #203 ) ;
#278 = ORIENTED_EDGE ( 'NONE', *, *, #139, .T. ) ;
#279 = ORIENTED_EDGE ( 'NONE', *, *, #41, .T. ) ;
#280 = CARTESIAN_POINT ( 'NONE',  ( 37.45000000000000284, 4.586302262806837294E-15, 6.500000000000000000 ) ) ;
#281 = CARTESIAN_POINT ( 'NONE',  ( 0.0000000000000000000, 0.0000000000000000000, 6.500000000000000000 ) ) ;
#282 = CARTESIAN_POINT ( 'NONE',  ( 0.0000000000000000000, 0.0000000000000000000, 3.499999999999906741 ) ) ;
#283 = CONICAL_SURFACE ( 'NONE', #296, 31.00000000000000000, 0.7853981633974482790 ) ;
#284 = CARTESIAN_POINT ( 'NONE',  ( -37.45000000000000284, 0.0000000000000000000, 6.500000000000000000 ) ) ;
#285 = ORIENTED_EDGE ( 'NONE', *, *, #161, .T. ) ;
#286 = DIRECTION ( 'NONE',  ( 1.000000000000000000, 0.0000000000000000000, 0.0000000000000000000 ) ) ;
#287 = DATE_TIME_ROLE ( 'creation_date' ) ;
#288 = ORIENTED_EDGE ( 'NONE', *, *, #218, .F. ) ;
#289 = VERTEX_POINT ( 'NONE', #133 ) ;
#290 = UNCERTAINTY_MEASURE_WITH_UNIT (LENGTH_MEASURE( 1.000000000000000082E-05 ), #134, 'distance_accuracy_value', 'NONE');
#291 = MECHANICAL_CONTEXT ( 'NONE', #244, 'mechanical' ) ;
#292 = EDGE_CURVE ( 'NONE', #188, #18, #72, .T. ) ;
#293 = APPROVAL_PERSON_ORGANIZATION ( #162, #214, #227 ) ;
#294 = FACE_OUTER_BOUND ( 'NONE', #61, .T. ) ;
#295 = EDGE_LOOP ( 'NONE', ( #298, #49 ) ) ;
#296 = AXIS2_PLACEMENT_3D ( 'NONE', #261, #219, #129 ) ;
#297 = ORIENTED_EDGE ( 'NONE', *, *, #21, .F. ) ;
#298 = ORIENTED_EDGE ( 'NONE', *, *, #161, .F. ) ;
#299 = PRODUCT_DEFINITION_SHAPE ( 'NONE', 'NONE',  #5 ) ;
ENDSEC;
END-ISO-10303-21;
