ISO-10303-21;
HEADER;
FILE_DESCRIPTION (( 'STEP AP214' ),
    '1' );
FILE_NAME ('P00160P00.STEP',
    '2019-09-26T13:22:58',
    ( '' ),
    ( '' ),
    'SwSTEP 2.0',
    'SolidWorks 2018',
    '' );
FILE_SCHEMA (( 'AUTOMOTIVE_DESIGN' ));
ENDSEC;

DATA;
#1 = PRODUCT_DEFINITION_CONTEXT ( 'detailed design', #196, 'design' ) ;
#2 = DIRECTION ( 'NONE',  ( -1.000000000000000000, 0.0000000000000000000, 0.0000000000000000000 ) ) ;
#3 = CARTESIAN_POINT ( 'NONE',  ( 1.499999999999999556, 1.836970198721029441E-16, 5.000000000000000000 ) ) ;
#4 = ORIENTED_EDGE ( 'NONE', *, *, #227, .F. ) ;
#5 = AXIS2_PLACEMENT_3D ( 'NONE', #103, #26, #7 ) ;
#6 = DIRECTION ( 'NONE',  ( 1.000000000000000000, 0.0000000000000000000, 0.0000000000000000000 ) ) ;
#7 = DIRECTION ( 'NONE',  ( -1.000000000000000000, 0.0000000000000000000, 0.0000000000000000000 ) ) ;
#8 = FILL_AREA_STYLE_COLOUR ( '', #225 ) ;
#9 = EDGE_CURVE ( 'Arête2', #85, #63, #151, .T. ) ;
#10 = SURFACE_STYLE_FILL_AREA ( #35 ) ;
#11 = ORIENTED_EDGE ( 'NONE', *, *, #227, .T. ) ;
#12 = APPLICATION_CONTEXT ( 'automotive_design' ) ;
#13 = DIRECTION ( 'NONE',  ( 1.000000000000000000, 0.0000000000000000000, 0.0000000000000000000 ) ) ;
#14 = FACE_BOUND ( 'NONE', #92, .T. ) ;
#15 =( GEOMETRIC_REPRESENTATION_CONTEXT ( 3 ) GLOBAL_UNCERTAINTY_ASSIGNED_CONTEXT ( ( #51 ) ) GLOBAL_UNIT_ASSIGNED_CONTEXT ( ( #154, #228, #91 ) ) REPRESENTATION_CONTEXT ( 'NONE', 'WORKASPACE' ) );
#16 =( NAMED_UNIT ( * ) PLANE_ANGLE_UNIT ( ) SI_UNIT ( $, .RADIAN. ) );
#17 = DIRECTION ( 'NONE',  ( -1.000000000000000000, 0.0000000000000000000, 0.0000000000000000000 ) ) ;
#18 = PRODUCT_RELATED_PRODUCT_CATEGORY ( 'part', '', ( #147 ) ) ;
#19 = ORIENTED_EDGE ( 'NONE', *, *, #109, .T. ) ;
#20 = CARTESIAN_POINT ( 'NONE',  ( 0.0000000000000000000, 0.0000000000000000000, 5.000000000000000000 ) ) ;
#21 = DIRECTION ( 'NONE',  ( -0.0000000000000000000, -0.0000000000000000000, -1.000000000000000000 ) ) ;
#22 = ADVANCED_FACE ( 'Face2', ( #90, #179 ), #198, .T. ) ;
#23 = CARTESIAN_POINT ( 'NONE',  ( 2.750000000000000000, 3.367778697655221012E-16, 5.000000000000000000 ) ) ;
#24 = DIRECTION ( 'NONE',  ( 0.0000000000000000000, 0.0000000000000000000, 1.000000000000000000 ) ) ;
#25 = ORIENTED_EDGE ( 'NONE', *, *, #78, .F. ) ;
#26 = DIRECTION ( 'NONE',  ( -0.0000000000000000000, -0.0000000000000000000, -1.000000000000000000 ) ) ;
#27 = MANIFOLD_SOLID_BREP ( 'Face3', #194 ) ;
#28 = EDGE_LOOP ( 'NONE', ( #204, #189, #25, #102 ) ) ;
#29 = DIRECTION ( 'NONE',  ( 0.0000000000000000000, 0.0000000000000000000, 1.000000000000000000 ) ) ;
#30 = VECTOR ( 'NONE', #42, 1000.000000000000000 ) ;
#31 = EDGE_LOOP ( 'NONE', ( #152, #113, #180, #110 ) ) ;
#32 =( LENGTH_UNIT ( ) NAMED_UNIT ( * ) SI_UNIT ( .MILLI., .METRE. ) );
#33 = CYLINDRICAL_SURFACE ( 'NONE', #156, 1.499999999999999556 ) ;
#34 = ORIENTED_EDGE ( 'NONE', *, *, #142, .F. ) ;
#35 = FILL_AREA_STYLE ('',( #201 ) ) ;
#36 = CARTESIAN_POINT ( 'NONE',  ( 0.0000000000000000000, 0.0000000000000000000, 5.000000000000000000 ) ) ;
#37 = CARTESIAN_POINT ( 'NONE',  ( 0.0000000000000000000, 0.0000000000000000000, 0.0000000000000000000 ) ) ;
#38 = MECHANICAL_DESIGN_GEOMETRIC_PRESENTATION_REPRESENTATION (  '', ( #93 ), #205 ) ;
#39 = CARTESIAN_POINT ( 'NONE',  ( 0.0000000000000000000, 0.0000000000000000000, 5.000000000000000000 ) ) ;
#40 = CARTESIAN_POINT ( 'NONE',  ( 0.0000000000000000000, 0.0000000000000000000, 0.0000000000000000000 ) ) ;
#41 = DIRECTION ( 'NONE',  ( 0.0000000000000000000, 0.0000000000000000000, 1.000000000000000000 ) ) ;
#42 = DIRECTION ( 'NONE',  ( -0.0000000000000000000, -0.0000000000000000000, -1.000000000000000000 ) ) ;
#43 = AXIS2_PLACEMENT_3D ( 'NONE', #40, #41, #98 ) ;
#44 = LINE ( 'NONE', #136, #69 ) ;
#45 = DIRECTION ( 'NONE',  ( 0.0000000000000000000, 0.0000000000000000000, 1.000000000000000000 ) ) ;
#46 = FACE_OUTER_BOUND ( 'NONE', #161, .T. ) ;
#47 = DIRECTION ( 'NONE',  ( 1.000000000000000000, 0.0000000000000000000, 0.0000000000000000000 ) ) ;
#48 = VERTEX_POINT ( 'NONE', #211 ) ;
#49 = EDGE_LOOP ( 'NONE', ( #4, #82, #220, #55 ) ) ;
#50 = PRODUCT_CONTEXT ( 'NONE', #159, 'mechanical' ) ;
#51 = UNCERTAINTY_MEASURE_WITH_UNIT (LENGTH_MEASURE( 1.000000000000000082E-05 ), #154, 'distance_accuracy_value', 'NONE');
#52 = PRODUCT_DEFINITION_SHAPE ( 'NONE', 'NONE',  #199 ) ;
#53 = CIRCLE ( 'NONE', #192, 1.499999999999999556 ) ;
#54 = EDGE_CURVE ( 'Arête3', #144, #57, #165, .T. ) ;
#55 = ORIENTED_EDGE ( 'NONE', *, *, #120, .F. ) ;
#56 = PRESENTATION_LAYER_ASSIGNMENT (  '', '', ( #149 ) ) ;
#57 = VERTEX_POINT ( 'NONE', #223 ) ;
#58 = CARTESIAN_POINT ( 'NONE',  ( -1.499999999999999556, 0.0000000000000000000, 5.000000000000000000 ) ) ;
#59 = ORIENTED_EDGE ( 'NONE', *, *, #72, .F. ) ;
#60 = PLANE ( 'NONE',  #185 ) ;
#61 = CARTESIAN_POINT ( 'NONE',  ( -1.499999999999999556, 0.0000000000000000000, 0.0000000000000000000 ) ) ;
#62 = ADVANCED_FACE ( 'Face3', ( #46 ), #84, .F. ) ;
#63 = VERTEX_POINT ( 'NONE', #116 ) ;
#64 = CIRCLE ( 'NONE', #221, 2.750000000000000000 ) ;
#65 = AXIS2_PLACEMENT_3D ( 'NONE', #111, #166, #210 ) ;
#66 = APPLICATION_PROTOCOL_DEFINITION ( 'draft international standard', 'automotive_design', 1998, #196 ) ;
#67 = APPLICATION_PROTOCOL_DEFINITION ( 'draft international standard', 'automotive_design', 1998, #12 ) ;
#68 = DIRECTION ( 'NONE',  ( 1.000000000000000000, 0.0000000000000000000, 0.0000000000000000000 ) ) ;
#69 = VECTOR ( 'NONE', #77, 1000.000000000000000 ) ;
#70 = ORIENTED_EDGE ( 'NONE', *, *, #170, .F. ) ;
#71 = DIRECTION ( 'NONE',  ( -1.000000000000000000, 0.0000000000000000000, 0.0000000000000000000 ) ) ;
#72 = EDGE_CURVE ( 'Arête2', #63, #85, #53, .T. ) ;
#73 = DIRECTION ( 'NONE',  ( 1.000000000000000000, 0.0000000000000000000, -0.0000000000000000000 ) ) ;
#74 = CYLINDRICAL_SURFACE ( 'NONE', #129, 2.750000000000000000 ) ;
#75 = DIRECTION ( 'NONE',  ( 0.0000000000000000000, 0.0000000000000000000, 1.000000000000000000 ) ) ;
#76 = EDGE_LOOP ( 'NONE', ( #146, #59 ) ) ;
#77 = DIRECTION ( 'NONE',  ( -0.0000000000000000000, -0.0000000000000000000, -1.000000000000000000 ) ) ;
#78 = EDGE_CURVE ( 'Arête4', #105, #208, #138, .T. ) ;
#79 = CARTESIAN_POINT ( 'NONE',  ( 1.499999999999999556, 1.836970198721029441E-16, 0.0000000000000000000 ) ) ;
#80 = ORIENTED_EDGE ( 'NONE', *, *, #125, .T. ) ;
#81 = ADVANCED_FACE ( 'Face1', ( #193 ), #74, .T. ) ;
#82 = ORIENTED_EDGE ( 'NONE', *, *, #95, .T. ) ;
#83 = PRODUCT_DEFINITION_SHAPE ( 'NONE', 'NONE',  #209 ) ;
#84 = CYLINDRICAL_SURFACE ( 'NONE', #214, 1.499999999999999556 ) ;
#85 = VERTEX_POINT ( 'NONE', #58 ) ;
#86 = APPLICATION_PROTOCOL_DEFINITION ( 'draft international standard', 'automotive_design', 1998, #108 ) ;
#87 = DIRECTION ( 'NONE',  ( 1.000000000000000000, 0.0000000000000000000, 0.0000000000000000000 ) ) ;
#88 = CIRCLE ( 'NONE', #175, 2.750000000000000000 ) ;
#89 = DIRECTION ( 'NONE',  ( 0.0000000000000000000, 0.0000000000000000000, 1.000000000000000000 ) ) ;
#90 = FACE_OUTER_BOUND ( 'NONE', #106, .T. ) ;
#91 =( NAMED_UNIT ( * ) SI_UNIT ( $, .STERADIAN. ) SOLID_ANGLE_UNIT ( ) );
#92 = EDGE_LOOP ( 'NONE', ( #197, #19 ) ) ;
#93 = STYLED_ITEM ( 'NONE', ( #174 ), #27 ) ;
#94 =( NAMED_UNIT ( * ) SI_UNIT ( $, .STERADIAN. ) SOLID_ANGLE_UNIT ( ) );
#95 = EDGE_CURVE ( 'NONE', #134, #57, #212, .T. ) ;
#96 = FACE_OUTER_BOUND ( 'NONE', #28, .T. ) ;
#97 = DIRECTION ( 'NONE',  ( 0.0000000000000000000, 0.0000000000000000000, 1.000000000000000000 ) ) ;
#98 = DIRECTION ( 'NONE',  ( 1.000000000000000000, 0.0000000000000000000, 0.0000000000000000000 ) ) ;
#99 = CYLINDRICAL_SURFACE ( 'NONE', #5, 2.750000000000000000 ) ;
#100 = CARTESIAN_POINT ( 'NONE',  ( 0.0000000000000000000, 0.0000000000000000000, 0.0000000000000000000 ) ) ;
#101 = ADVANCED_FACE ( 'Face3', ( #96 ), #33, .F. ) ;
#102 = ORIENTED_EDGE ( 'NONE', *, *, #158, .F. ) ;
#103 = CARTESIAN_POINT ( 'NONE',  ( 0.0000000000000000000, 0.0000000000000000000, 5.000000000000000000 ) ) ;
#104 = SURFACE_STYLE_FILL_AREA ( #218 ) ;
#105 = VERTEX_POINT ( 'NONE', #61 ) ;
#106 = EDGE_LOOP ( 'NONE', ( #80, #11 ) ) ;
#107 = AXIS2_PLACEMENT_3D ( 'NONE', #216, #140, #150 ) ;
#108 = APPLICATION_CONTEXT ( 'automotive_design' ) ;
#109 = EDGE_CURVE ( 'Arête4', #208, #105, #206, .T. ) ;
#110 = ORIENTED_EDGE ( 'NONE', *, *, #54, .T. ) ;
#111 = CARTESIAN_POINT ( 'NONE',  ( 0.0000000000000000000, 0.0000000000000000000, 5.000000000000000000 ) ) ;
#112 = COLOUR_RGB ( '',0.4980392156862745168, 0.4980392156862745168, 0.4980392156862745168 ) ;
#113 = ORIENTED_EDGE ( 'NONE', *, *, #125, .F. ) ;
#114 = DIRECTION ( 'NONE',  ( -0.0000000000000000000, -0.0000000000000000000, -1.000000000000000000 ) ) ;
#115 = FACE_OUTER_BOUND ( 'NONE', #31, .T. ) ;
#116 = CARTESIAN_POINT ( 'NONE',  ( 1.499999999999999556, 1.836970198721029441E-16, 5.000000000000000000 ) ) ;
#117 = PRODUCT_DEFINITION_CONTEXT ( 'detailed design', #108, 'design' ) ;
#118 = SURFACE_SIDE_STYLE ('',( #104 ) ) ;
#119 = CARTESIAN_POINT ( 'NONE',  ( 0.0000000000000000000, 0.0000000000000000000, 0.0000000000000000000 ) ) ;
#120 = EDGE_CURVE ( 'NONE', #48, #144, #176, .T. ) ;
#121 = DIRECTION ( 'NONE',  ( -0.0000000000000000000, -0.0000000000000000000, -1.000000000000000000 ) ) ;
#122 = SHAPE_DEFINITION_REPRESENTATION ( #83, #177 ) ;
#123 = CARTESIAN_POINT ( 'NONE',  ( 0.0000000000000000000, 0.0000000000000000000, 0.0000000000000000000 ) ) ;
#124 = ORIENTED_EDGE ( 'NONE', *, *, #109, .F. ) ;
#125 = EDGE_CURVE ( 'Arête1', #48, #134, #64, .T. ) ;
#126 = VECTOR ( 'NONE', #121, 1000.000000000000000 ) ;
#127 = CARTESIAN_POINT ( 'NONE',  ( 0.0000000000000000000, 0.0000000000000000000, 0.0000000000000000000 ) ) ;
#128 =( LENGTH_UNIT ( ) NAMED_UNIT ( * ) SI_UNIT ( .MILLI., .METRE. ) );
#129 = AXIS2_PLACEMENT_3D ( 'NONE', #20, #114, #2 ) ;
#130 = MECHANICAL_DESIGN_GEOMETRIC_PRESENTATION_REPRESENTATION (  '', ( #149 ), #163 ) ;
#131 = ORIENTED_EDGE ( 'NONE', *, *, #72, .T. ) ;
#132 = AXIS2_PLACEMENT_3D ( 'NONE', #37, #200, #87 ) ;
#133 = DIRECTION ( 'NONE',  ( -0.0000000000000000000, -0.0000000000000000000, -1.000000000000000000 ) ) ;
#134 = VERTEX_POINT ( 'NONE', #23 ) ;
#135 = DIRECTION ( 'NONE',  ( -0.0000000000000000000, -0.0000000000000000000, -1.000000000000000000 ) ) ;
#136 = CARTESIAN_POINT ( 'NONE',  ( -1.499999999999999556, 0.0000000000000000000, 5.000000000000000000 ) ) ;
#137 = CARTESIAN_POINT ( 'NONE',  ( 2.750000000000000000, 3.367778697655221012E-16, 5.000000000000000000 ) ) ;
#138 = CIRCLE ( 'NONE', #107, 1.499999999999999556 ) ;
#139 = ORIENTED_EDGE ( 'NONE', *, *, #158, .T. ) ;
#140 = DIRECTION ( 'NONE',  ( 0.0000000000000000000, 0.0000000000000000000, 1.000000000000000000 ) ) ;
#141 = UNCERTAINTY_MEASURE_WITH_UNIT (LENGTH_MEASURE( 1.000000000000000082E-05 ), #32, 'distance_accuracy_value', 'NONE');
#142 = EDGE_CURVE ( 'NONE', #63, #208, #188, .T. ) ;
#143 = FACE_OUTER_BOUND ( 'NONE', #213, .T. ) ;
#144 = VERTEX_POINT ( 'NONE', #153 ) ;
#145 = AXIS2_PLACEMENT_3D ( 'NONE', #123, #226, #13 ) ;
#146 = ORIENTED_EDGE ( 'NONE', *, *, #9, .F. ) ;
#147 = PRODUCT ( 'P00160P00', 'P00160P00', '', ( #195 ) ) ;
#148 = CIRCLE ( 'NONE', #167, 2.750000000000000000 ) ;
#149 = STYLED_ITEM ( 'NONE', ( #184 ), #177 ) ;
#150 = DIRECTION ( 'NONE',  ( 1.000000000000000000, 0.0000000000000000000, 0.0000000000000000000 ) ) ;
#151 = CIRCLE ( 'NONE', #65, 1.499999999999999556 ) ;
#152 = ORIENTED_EDGE ( 'NONE', *, *, #95, .F. ) ;
#153 = CARTESIAN_POINT ( 'NONE',  ( -2.750000000000000000, 0.0000000000000000000, 0.0000000000000000000 ) ) ;
#154 =( LENGTH_UNIT ( ) NAMED_UNIT ( * ) SI_UNIT ( .MILLI., .METRE. ) );
#155 = PRODUCT ( 'P00160P00', 'P00160P00', '', ( #50 ) ) ;
#156 = AXIS2_PLACEMENT_3D ( 'NONE', #217, #135, #17 ) ;
#157 = ORIENTED_EDGE ( 'NONE', *, *, #54, .F. ) ;
#158 = EDGE_CURVE ( 'NONE', #85, #105, #44, .T. ) ;
#159 = APPLICATION_CONTEXT ( 'automotive_design' ) ;
#160 = UNCERTAINTY_MEASURE_WITH_UNIT (LENGTH_MEASURE( 1.000000000000000082E-05 ), #128, 'distance_accuracy_value', 'NONE');
#161 = EDGE_LOOP ( 'NONE', ( #34, #131, #139, #124 ) ) ;
#162 = SURFACE_STYLE_USAGE ( .BOTH. , #118 ) ;
#163 =( GEOMETRIC_REPRESENTATION_CONTEXT ( 3 ) GLOBAL_UNCERTAINTY_ASSIGNED_CONTEXT ( ( #160 ) ) GLOBAL_UNIT_ASSIGNED_CONTEXT ( ( #128, #207, #224 ) ) REPRESENTATION_CONTEXT ( 'NONE', 'WORKASPACE' ) );
#164 = APPLICATION_PROTOCOL_DEFINITION ( 'draft international standard', 'automotive_design', 1998, #159 ) ;
#165 = CIRCLE ( 'NONE', #132, 2.750000000000000000 ) ;
#166 = DIRECTION ( 'NONE',  ( 0.0000000000000000000, 0.0000000000000000000, 1.000000000000000000 ) ) ;
#167 = AXIS2_PLACEMENT_3D ( 'NONE', #222, #29, #47 ) ;
#168 = VECTOR ( 'NONE', #21, 1000.000000000000000 ) ;
#169 = DIRECTION ( 'NONE',  ( 1.000000000000000000, 0.0000000000000000000, 0.0000000000000000000 ) ) ;
#170 = EDGE_CURVE ( 'Arête3', #57, #144, #88, .T. ) ;
#171 = ADVANCED_FACE ( 'Face4', ( #143, #14 ), #60, .F. ) ;
#172 = DIRECTION ( 'NONE',  ( 1.000000000000000000, 0.0000000000000000000, -0.0000000000000000000 ) ) ;
#173 = PRODUCT_RELATED_PRODUCT_CATEGORY ( 'part', '', ( #155 ) ) ;
#174 = PRESENTATION_STYLE_ASSIGNMENT (( #183 ) ) ;
#175 = AXIS2_PLACEMENT_3D ( 'NONE', #119, #75, #202 ) ;
#176 = LINE ( 'NONE', #187, #126 ) ;
#177 = ADVANCED_BREP_SHAPE_REPRESENTATION ( 'P00160P00', ( #27, #191 ), #15 ) ;
#178 = PRESENTATION_LAYER_ASSIGNMENT (  '', '', ( #93 ) ) ;
#179 = FACE_BOUND ( 'NONE', #76, .T. ) ;
#180 = ORIENTED_EDGE ( 'NONE', *, *, #120, .T. ) ;
#181 = DIRECTION ( 'NONE',  ( 0.0000000000000000000, 0.0000000000000000000, 1.000000000000000000 ) ) ;
#182 = SURFACE_SIDE_STYLE ('',( #10 ) ) ;
#183 = SURFACE_STYLE_USAGE ( .BOTH. , #182 ) ;
#184 = PRESENTATION_STYLE_ASSIGNMENT (( #162 ) ) ;
#185 = AXIS2_PLACEMENT_3D ( 'NONE', #100, #45, #172 ) ;
#186 = CARTESIAN_POINT ( 'NONE',  ( 0.0000000000000000000, 0.0000000000000000000, 5.000000000000000000 ) ) ;
#187 = CARTESIAN_POINT ( 'NONE',  ( -2.750000000000000000, 0.0000000000000000000, 5.000000000000000000 ) ) ;
#188 = LINE ( 'NONE', #3, #30 ) ;
#189 = ORIENTED_EDGE ( 'NONE', *, *, #142, .T. ) ;
#190 = CARTESIAN_POINT ( 'NONE',  ( 0.0000000000000000000, 0.0000000000000000000, 5.000000000000000000 ) ) ;
#191 = AXIS2_PLACEMENT_3D ( 'NONE', #127, #89, #68 ) ;
#192 = AXIS2_PLACEMENT_3D ( 'NONE', #186, #24, #169 ) ;
#193 = FACE_OUTER_BOUND ( 'NONE', #49, .T. ) ;
#194 = CLOSED_SHELL ( 'NONE', ( #101, #81, #22, #171, #219, #62 ) ) ;
#195 = PRODUCT_CONTEXT ( 'NONE', #12, 'mechanical' ) ;
#196 = APPLICATION_CONTEXT ( 'automotive_design' ) ;
#197 = ORIENTED_EDGE ( 'NONE', *, *, #78, .T. ) ;
#198 = PLANE ( 'NONE',  #203 ) ;
#199 = PRODUCT_DEFINITION ( 'UNKNOWN', '', #229, #1 ) ;
#200 = DIRECTION ( 'NONE',  ( 0.0000000000000000000, 0.0000000000000000000, 1.000000000000000000 ) ) ;
#201 = FILL_AREA_STYLE_COLOUR ( '', #112 ) ;
#202 = DIRECTION ( 'NONE',  ( 1.000000000000000000, 0.0000000000000000000, 0.0000000000000000000 ) ) ;
#203 = AXIS2_PLACEMENT_3D ( 'NONE', #39, #181, #73 ) ;
#204 = ORIENTED_EDGE ( 'NONE', *, *, #9, .T. ) ;
#205 =( GEOMETRIC_REPRESENTATION_CONTEXT ( 3 ) GLOBAL_UNCERTAINTY_ASSIGNED_CONTEXT ( ( #141 ) ) GLOBAL_UNIT_ASSIGNED_CONTEXT ( ( #32, #16, #94 ) ) REPRESENTATION_CONTEXT ( 'NONE', 'WORKASPACE' ) );
#206 = CIRCLE ( 'NONE', #43, 1.499999999999999556 ) ;
#207 =( NAMED_UNIT ( * ) PLANE_ANGLE_UNIT ( ) SI_UNIT ( $, .RADIAN. ) );
#208 = VERTEX_POINT ( 'NONE', #79 ) ;
#209 = PRODUCT_DEFINITION ( 'UNKNOWN', '', #215, #117 ) ;
#210 = DIRECTION ( 'NONE',  ( 1.000000000000000000, 0.0000000000000000000, 0.0000000000000000000 ) ) ;
#211 = CARTESIAN_POINT ( 'NONE',  ( -2.750000000000000000, 0.0000000000000000000, 5.000000000000000000 ) ) ;
#212 = LINE ( 'NONE', #137, #168 ) ;
#213 = EDGE_LOOP ( 'NONE', ( #157, #70 ) ) ;
#214 = AXIS2_PLACEMENT_3D ( 'NONE', #36, #133, #71 ) ;
#215 = PRODUCT_DEFINITION_FORMATION_WITH_SPECIFIED_SOURCE ( 'ANY', '', #147, .NOT_KNOWN. ) ;
#216 = CARTESIAN_POINT ( 'NONE',  ( 0.0000000000000000000, 0.0000000000000000000, 0.0000000000000000000 ) ) ;
#217 = CARTESIAN_POINT ( 'NONE',  ( 0.0000000000000000000, 0.0000000000000000000, 5.000000000000000000 ) ) ;
#218 = FILL_AREA_STYLE ('',( #8 ) ) ;
#219 = ADVANCED_FACE ( 'Face1', ( #115 ), #99, .T. ) ;
#220 = ORIENTED_EDGE ( 'NONE', *, *, #170, .T. ) ;
#221 = AXIS2_PLACEMENT_3D ( 'NONE', #190, #97, #6 ) ;
#222 = CARTESIAN_POINT ( 'NONE',  ( 0.0000000000000000000, 0.0000000000000000000, 5.000000000000000000 ) ) ;
#223 = CARTESIAN_POINT ( 'NONE',  ( 2.750000000000000000, 3.367778697655221012E-16, 0.0000000000000000000 ) ) ;
#224 =( NAMED_UNIT ( * ) SI_UNIT ( $, .STERADIAN. ) SOLID_ANGLE_UNIT ( ) );
#225 = COLOUR_RGB ( '',0.4980392156862745168, 0.4980392156862745168, 0.4980392156862745168 ) ;
#226 = DIRECTION ( 'NONE',  ( 0.0000000000000000000, 0.0000000000000000000, 1.000000000000000000 ) ) ;
#227 = EDGE_CURVE ( 'Arête1', #134, #48, #148, .T. ) ;
#228 =( NAMED_UNIT ( * ) PLANE_ANGLE_UNIT ( ) SI_UNIT ( $, .RADIAN. ) );
#229 = PRODUCT_DEFINITION_FORMATION_WITH_SPECIFIED_SOURCE ( 'ANY', '', #155, .NOT_KNOWN. ) ;
ENDSEC;
END-ISO-10303-21;
