ISO-10303-21;
HEADER;
/****************************************************************
 * Generated by software with PDElib inside                     *
 * PDElib Version v7.5, created Tue 10/04/2016 12:12:03.09      *
 * International Technegroup Inc. (www.iti-global.com)          *
 ****************************************************************/
FILE_DESCRIPTION((''),'2;1');
FILE_NAME('C:\\Users\\PC2\\Desktop\\Norbert\\Strock 250\\Fichiers 3D - Strock-250\\Fichier pion aluminium secondaire.stp','2019-09-26T11:04:34',(''),(''),'STEP Write','Mastercam 2019 ... CNC Software, Inc.','');
FILE_SCHEMA(('AUTOMOTIVE_DESIGN'));
ENDSEC;
DATA;
#10=(NAMED_UNIT(*)PLANE_ANGLE_UNIT()SI_UNIT($,.RADIAN.));
#11=DIMENSIONAL_EXPONENTS(0.0,0.0,0.0,0.0,0.0,0.0,0.0);
#12=PLANE_ANGLE_MEASURE_WITH_UNIT(PLANE_ANGLE_MEASURE(0.017453292500000),#10);
#16=(CONVERSION_BASED_UNIT('DEGREE',#12)NAMED_UNIT(#11)PLANE_ANGLE_UNIT());
#20=(NAMED_UNIT(*)SI_UNIT($,.STERADIAN.)SOLID_ANGLE_UNIT());
#24=(LENGTH_UNIT()NAMED_UNIT(*)SI_UNIT(.MILLI.,.METRE.));
#26=UNCERTAINTY_MEASURE_WITH_UNIT(LENGTH_MEASURE(0.000050000000000),#24,'DISTANCE_ACCURACY_VALUE','');
#28=(GEOMETRIC_REPRESENTATION_CONTEXT(3)GLOBAL_UNCERTAINTY_ASSIGNED_CONTEXT((#26))GLOBAL_UNIT_ASSIGNED_CONTEXT((#16,#20,#24))REPRESENTATION_CONTEXT('','3D'));
#29=APPLICATION_CONTEXT('automotive design');
#30=APPLICATION_PROTOCOL_DEFINITION('Draft International Standard','automotive_design',1998,#29);
#31=PRODUCT_CONTEXT('None',#29,'mechanical');
#32=PRODUCT('None','None','None',(#31));
#33=PRODUCT_RELATED_PRODUCT_CATEGORY('part','description',(#32));
#34=PRODUCT_DEFINITION_FORMATION('None','None',#32);
#35=PRODUCT_DEFINITION_CONTEXT('part definition',#29,'design');
#36=PRODUCT_DEFINITION('None','None',#34,#35);
#37=PRODUCT_DEFINITION_SHAPE('None','None',#36);
#38=ADVANCED_BREP_SHAPE_REPRESENTATION('',(#187),#28);
#39=SHAPE_DEFINITION_REPRESENTATION(#37,#38);
#40=CARTESIAN_POINT('',(0.000846477400046,0.500162601470947,1102.192968750000091));
#41=DIRECTION('',(0.0,0.0,-1.0));
#42=DIRECTION('',(-1.0,0.0,0.0));
#43=AXIS2_PLACEMENT_3D('',#40,#41,#42);
#44=CYLINDRICAL_SURFACE('',#43,2.750000000000000);
#45=CARTESIAN_POINT('',(2.750846477400046,0.500162601470947,1102.092968749999955));
#46=VERTEX_POINT('',#45);
#47=CARTESIAN_POINT('',(0.000846477400046,0.500162601470947,1102.092968749999955));
#48=DIRECTION('',(0.0,0.0,1.0));
#49=DIRECTION('',(1.0,0.0,0.0));
#50=AXIS2_PLACEMENT_3D('',#47,#48,#49);
#51=CIRCLE('',#50,2.750000000000000);
#52=EDGE_CURVE('',#46,#46,#51,.F.);
#53=ORIENTED_EDGE('',*,*,#52,.T.);
#54=EDGE_LOOP('',(#53));
#55=FACE_BOUND('',#54,.T.);
#56=CARTESIAN_POINT('',(2.750846477400046,0.500162601470947,1100.192968750000091));
#57=VERTEX_POINT('',#56);
#58=CARTESIAN_POINT('',(0.000846477400046,0.500162601470947,1100.192968750000091));
#59=DIRECTION('',(0.0,0.0,1.0));
#60=DIRECTION('',(1.0,0.0,0.0));
#61=AXIS2_PLACEMENT_3D('',#58,#59,#60);
#62=CIRCLE('',#61,2.750000000000000);
#63=EDGE_CURVE('',#57,#57,#62,.T.);
#64=ORIENTED_EDGE('',*,*,#63,.T.);
#65=EDGE_LOOP('',(#64));
#66=FACE_BOUND('',#65,.T.);
#67=ADVANCED_FACE('',(#55,#66),#44,.T.);
#68=CARTESIAN_POINT('',(0.000846477400046,0.500162601470947,1102.192968750000091));
#69=DIRECTION('',(0.0,0.0,1.0));
#70=DIRECTION('',(1.0,0.0,0.0));
#71=AXIS2_PLACEMENT_3D('',#68,#69,#70);
#72=PLANE('',#71);
#73=CARTESIAN_POINT('',(2.650846477400046,0.500162601470947,1102.192968750000091));
#74=VERTEX_POINT('',#73);
#75=CARTESIAN_POINT('',(0.000846477400046,0.500162601470947,1102.192968750000091));
#76=DIRECTION('',(0.0,0.0,1.0));
#77=DIRECTION('',(1.0,0.0,0.0));
#78=AXIS2_PLACEMENT_3D('',#75,#76,#77);
#79=CIRCLE('',#78,2.650000000000000);
#80=EDGE_CURVE('',#74,#74,#79,.T.);
#81=ORIENTED_EDGE('',*,*,#80,.T.);
#82=EDGE_LOOP('',(#81));
#83=FACE_OUTER_BOUND('',#82,.T.);
#84=CARTESIAN_POINT('',(2.100797649275328,0.500162601470947,1102.192968750000091));
#85=VERTEX_POINT('',#84);
#86=CARTESIAN_POINT('',(0.000846477400046,0.500162601470947,1102.192968750000091));
#87=DIRECTION('',(0.0,0.0,1.0));
#88=DIRECTION('',(1.0,0.0,0.0));
#89=AXIS2_PLACEMENT_3D('',#86,#87,#88);
#90=CIRCLE('',#89,2.099951171875282);
#91=EDGE_CURVE('',#85,#85,#90,.F.);
#92=ORIENTED_EDGE('',*,*,#91,.T.);
#93=EDGE_LOOP('',(#92));
#94=FACE_BOUND('',#93,.T.);
#95=ADVANCED_FACE('',(#83,#94),#72,.T.);
#96=CARTESIAN_POINT('',(0.000846477400046,0.500162601470947,1100.192968750000091));
#97=DIRECTION('',(0.0,0.0,1.0));
#98=DIRECTION('',(1.0,0.0,0.0));
#99=AXIS2_PLACEMENT_3D('',#96,#97,#98);
#100=PLANE('',#99);
#101=ORIENTED_EDGE('',*,*,#63,.F.);
#102=EDGE_LOOP('',(#101));
#103=FACE_OUTER_BOUND('',#102,.T.);
#104=CARTESIAN_POINT('',(1.500846477400046,0.500162601470947,1100.192968750000091));
#105=VERTEX_POINT('',#104);
#106=CARTESIAN_POINT('',(0.000846477400046,0.500162601470947,1100.192968750000091));
#107=DIRECTION('',(0.0,0.0,1.0));
#108=DIRECTION('',(1.0,0.0,0.0));
#109=AXIS2_PLACEMENT_3D('',#106,#107,#108);
#110=CIRCLE('',#109,1.500000000000000);
#111=EDGE_CURVE('',#105,#105,#110,.F.);
#112=ORIENTED_EDGE('',*,*,#111,.F.);
#113=EDGE_LOOP('',(#112));
#114=FACE_BOUND('',#113,.T.);
#115=ADVANCED_FACE('',(#103,#114),#100,.F.);
#116=CARTESIAN_POINT('',(0.000846477400046,0.500162601470947,1097.192993164062955));
#117=DIRECTION('',(0.0,0.0,1.0));
#118=DIRECTION('',(1.0,0.0,0.0));
#119=AXIS2_PLACEMENT_3D('',#116,#117,#118);
#120=CYLINDRICAL_SURFACE('',#119,1.500000000000000);
#121=CARTESIAN_POINT('',(1.500846477400046,0.500162601470947,1097.192993164062955));
#122=VERTEX_POINT('',#121);
#123=CARTESIAN_POINT('',(0.000846477400046,0.500162601470947,1097.192993164062955));
#124=DIRECTION('',(0.0,0.0,1.0));
#125=DIRECTION('',(1.0,0.0,0.0));
#126=AXIS2_PLACEMENT_3D('',#123,#124,#125);
#127=CIRCLE('',#126,1.500000000000000);
#128=EDGE_CURVE('',#122,#122,#127,.T.);
#129=ORIENTED_EDGE('',*,*,#128,.T.);
#130=EDGE_LOOP('',(#129));
#131=FACE_BOUND('',#130,.T.);
#132=ORIENTED_EDGE('',*,*,#111,.T.);
#133=EDGE_LOOP('',(#132));
#134=FACE_BOUND('',#133,.T.);
#135=ADVANCED_FACE('',(#131,#134),#120,.T.);
#136=CARTESIAN_POINT('',(0.000846477400046,0.500162601470947,1097.192993164062955));
#137=DIRECTION('',(0.0,0.0,1.0));
#138=DIRECTION('',(1.0,0.0,0.0));
#139=AXIS2_PLACEMENT_3D('',#136,#137,#138);
#140=PLANE('',#139);
#141=ORIENTED_EDGE('',*,*,#128,.F.);
#142=EDGE_LOOP('',(#141));
#143=FACE_OUTER_BOUND('',#142,.T.);
#144=ADVANCED_FACE('',(#143),#140,.F.);
#145=CARTESIAN_POINT('',(0.000846477400046,0.500162601470947,1102.192993164062955));
#146=DIRECTION('',(0.0,0.0,1.0));
#147=DIRECTION('',(1.0,0.0,0.0));
#148=AXIS2_PLACEMENT_3D('',#145,#146,#147);
#149=CONICAL_SURFACE('',#148,2.0,63.434948822921982);
#150=CARTESIAN_POINT('',(1.911354930175118,0.500162601470947,1102.148247390450024));
#151=VERTEX_POINT('',#150);
#152=CARTESIAN_POINT('',(0.000846477400046,0.500162601470947,1102.148247390450024));
#153=DIRECTION('',(0.0,0.0,1.0));
#154=DIRECTION('',(1.0,0.0,0.0));
#155=AXIS2_PLACEMENT_3D('',#152,#153,#154);
#156=CIRCLE('',#155,1.910508452775073);
#157=EDGE_CURVE('',#151,#151,#156,.T.);
#158=ORIENTED_EDGE('',*,*,#157,.T.);
#159=EDGE_LOOP('',(#158));
#160=FACE_OUTER_BOUND('',#159,.T.);
#161=ADVANCED_FACE('',(#160),#149,.F.);
#162=CARTESIAN_POINT('',(0.000846477400046,0.500162601470947,1102.148247390450024));
#163=DIRECTION('',(0.0,0.0,1.000000000000000));
#164=DIRECTION('',(1.0,0.0,0.0));
#165=AXIS2_PLACEMENT_3D('',#162,#163,#164);
#166=CONICAL_SURFACE('',#165,1.910508452775073,76.717474411530588);
#167=ORIENTED_EDGE('',*,*,#91,.F.);
#168=EDGE_LOOP('',(#167));
#169=FACE_OUTER_BOUND('',#168,.T.);
#170=ORIENTED_EDGE('',*,*,#157,.F.);
#171=EDGE_LOOP('',(#170));
#172=FACE_BOUND('',#171,.T.);
#173=ADVANCED_FACE('',(#169,#172),#166,.F.);
#174=CARTESIAN_POINT('',(0.000846477400046,0.500162601470947,1102.192968750000091));
#175=DIRECTION('',(0.0,0.0,-1.000000000000000));
#176=DIRECTION('',(-1.0,0.0,0.0));
#177=AXIS2_PLACEMENT_3D('',#174,#175,#176);
#178=CONICAL_SURFACE('',#177,2.650000000000000,45.000000000003112);
#179=ORIENTED_EDGE('',*,*,#52,.F.);
#180=EDGE_LOOP('',(#179));
#181=FACE_OUTER_BOUND('',#180,.T.);
#182=ORIENTED_EDGE('',*,*,#80,.F.);
#183=EDGE_LOOP('',(#182));
#184=FACE_BOUND('',#183,.T.);
#185=ADVANCED_FACE('',(#181,#184),#178,.T.);
#186=CLOSED_SHELL('',(#67,#95,#115,#135,#144,#161,#173,#185));
#187=MANIFOLD_SOLID_BREP('',#186);
#188=COLOUR_RGB('',0.800000000000000,0.800000000000000,0.800000000000000);
#189=FILL_AREA_STYLE_COLOUR('',#188);
#190=FILL_AREA_STYLE('',(#189));
#191=SURFACE_STYLE_FILL_AREA(#190);
#192=SURFACE_SIDE_STYLE('',(#191));
#193=SURFACE_STYLE_USAGE(.BOTH.,#192);
#194=PRESENTATION_STYLE_ASSIGNMENT((#193));
#195=STYLED_ITEM('',(#194),#67);
#196=STYLED_ITEM('',(#194),#95);
#197=STYLED_ITEM('',(#194),#115);
#198=STYLED_ITEM('',(#194),#135);
#199=STYLED_ITEM('',(#194),#144);
#200=STYLED_ITEM('',(#194),#161);
#201=STYLED_ITEM('',(#194),#173);
#202=STYLED_ITEM('',(#194),#185);
#203=STYLED_ITEM('',(#194),#187);
#204=PRESENTATION_LAYER_ASSIGNMENT('Vis hexagonale inox retaillée M3x5 mm + plaque alu 2 mm','',(#187));
#205=MECHANICAL_DESIGN_GEOMETRIC_PRESENTATION_REPRESENTATION('',(#195,#196,#197,#198,#199,#200,#201,#202,#203),#28);
#206=PRESENTATION_STYLE_ASSIGNMENT((NULL_STYLE(.NULL.)));
#207=DRAUGHTING_MODEL('',(#217,#218),#28);
#208=AXIS2_PLACEMENT_3D('',#209,#210,#211);
#209=CARTESIAN_POINT('',(0.0,0.0,0.0));
#210=DIRECTION('',(0.0,0.0,1.0));
#211=DIRECTION('',(1.0,0.0,0.0));
#212=REPRESENTATION_MAP(#208,#38);
#213=AXIS2_PLACEMENT_3D('',#214,#215,#216);
#214=CARTESIAN_POINT('',(0.0,0.0,0.0));
#215=DIRECTION('',(0.0,0.0,1.0));
#216=DIRECTION('',(1.0,0.0,0.0));
#217=MAPPED_ITEM('',#212,#213);
#218=STYLED_ITEM('',(#206),#217);
ENDSEC;
END-ISO-10303-21;
