ISO-10303-21;
HEADER;
FILE_DESCRIPTION (( 'STEP AP214' ),
    '1' );
FILE_NAME ('Blade.STEP',
    '2019-09-27T14:25:40',
    ( '' ),
    ( '' ),
    'SwSTEP 2.0',
    'SolidWorks 2014',
    '' );
FILE_SCHEMA (( 'AUTOMOTIVE_DESIGN' ));
ENDSEC;

DATA;
#1 = LINE ( 'NONE', #84, #128 ) ;
#2 = VERTEX_POINT ( 'NONE', #86 ) ;
#3 = DIRECTION ( 'NONE',  ( -0.9304796456098634000, 0.3663435943287982100, 0.0000000000000000000 ) ) ;
#4 = EDGE_CURVE ( 'NONE', #180, #233, #16, .T. ) ;
#5 = FACE_OUTER_BOUND ( 'NONE', #59, .T. ) ;
#6 = PRODUCT_RELATED_PRODUCT_CATEGORY ( 'part', '', ( #239 ) ) ;
#7 = DIRECTION ( 'NONE',  ( 0.2622477466008970600, 0.6566780942004628600, -0.7071067811865473500 ) ) ;
#8 = DIRECTION ( 'NONE',  ( -1.000000000000000000, 0.0000000000000000000, -0.0000000000000000000 ) ) ;
#9 = AXIS2_PLACEMENT_3D ( 'NONE', #182, #7, #211 ) ;
#10 = DIRECTION ( 'NONE',  ( -0.0000000000000000000, -0.0000000000000000000, -1.000000000000000000 ) ) ;
#11 = COLOUR_RGB ( '',0.7529411764705882200, 0.7529411764705882200, 0.7529411764705882200 ) ;
#12 = ORIENTED_EDGE ( 'NONE', *, *, #262, .T. ) ;
#13 = DIRECTION ( 'NONE',  ( 0.0000000000000000000, 0.0000000000000000000, -1.000000000000000000 ) ) ;
#14 = DIRECTION ( 'NONE',  ( 1.000000000000000000, 0.0000000000000000000, 0.0000000000000000000 ) ) ;
#15 = DIRECTION ( 'NONE',  ( -1.000000000000000000, 0.0000000000000000000, -0.0000000000000000000 ) ) ;
#16 = LINE ( 'NONE', #183, #78 ) ;
#17 = AXIS2_PLACEMENT_3D ( 'NONE', #156, #64, #141 ) ;
#18 = DIRECTION ( 'NONE',  ( 0.9375947782829178200, -1.701507969810068000E-031, -0.3477298257794493900 ) ) ;
#19 = EDGE_LOOP ( 'NONE', ( #143, #12, #74, #144, #217, #165, #273 ) ) ;
#20 = CARTESIAN_POINT ( 'NONE',  ( 0.0000000000000000000, 0.0000000000000000000, 0.0000000000000000000 ) ) ;
#21 = ADVANCED_FACE ( 'NONE', ( #286 ), #32, .T. ) ;
#22 = CLOSED_SHELL ( 'NONE', ( #274, #71, #201, #45, #72, #123, #169, #171, #277, #21 ) ) ;
#23 = ORIENTED_EDGE ( 'NONE', *, *, #113, .T. ) ;
#24 = DIRECTION ( 'NONE',  ( 1.000000000000000000, 0.0000000000000000000, 0.0000000000000000000 ) ) ;
#25 = DIRECTION ( 'NONE',  ( 0.0000000000000000000, 0.0000000000000000000, 1.000000000000000000 ) ) ;
#26 = AXIS2_PLACEMENT_3D ( 'NONE', #35, #62, #3 ) ;
#27 = LINE ( 'NONE', #296, #269 ) ;
#28 = ORIENTED_EDGE ( 'NONE', *, *, #196, .F. ) ;
#29 = CARTESIAN_POINT ( 'NONE',  ( 0.0000000000000000000, 0.0000000000000000000, 1.000000000000000000 ) ) ;
#30 = LINE ( 'NONE', #122, #297 ) ;
#31 = VERTEX_POINT ( 'NONE', #285 ) ;
#32 = PLANE ( 'NONE',  #9 ) ;
#33 = CARTESIAN_POINT ( 'NONE',  ( 59.03733979976226500, -22.41998168594792100, 1.000000000000001300 ) ) ;
#34 = EDGE_CURVE ( 'NONE', #52, #67, #223, .T. ) ;
#35 = CARTESIAN_POINT ( 'NONE',  ( 59.03733979976226500, -35.88158487674151300, 1.000000000000000000 ) ) ;
#36 = CARTESIAN_POINT ( 'NONE',  ( 0.0000000000000000000, 0.0000000000000000000, 0.0000000000000000000 ) ) ;
#37 = LINE ( 'NONE', #39, #291 ) ;
#38 = CARTESIAN_POINT ( 'NONE',  ( 59.03733979976226500, -35.88158487674151300, 0.0000000000000000000 ) ) ;
#39 = CARTESIAN_POINT ( 'NONE',  ( 0.0000000000000000000, 0.0000000000000000000, 1.000000000000000000 ) ) ;
#40 = LINE ( 'NONE', #225, #69 ) ;
#41 = EDGE_LOOP ( 'NONE', ( #284, #120, #190, #300, #228 ) ) ;
#42 = AXIS2_PLACEMENT_3D ( 'NONE', #82, #236, #263 ) ;
#43 =( NAMED_UNIT ( * ) SI_UNIT ( $, .STERADIAN. ) SOLID_ANGLE_UNIT ( ) );
#44 = CARTESIAN_POINT ( 'NONE',  ( 0.7005568359081820700, 0.0000000000000000000, 1.814557356828433700 ) ) ;
#45 = ADVANCED_FACE ( 'NONE', ( #292 ), #132, .F. ) ;
#46 = PLANE ( 'NONE',  #127 ) ;
#47 = ADVANCED_BREP_SHAPE_REPRESENTATION ( 'Blade', ( #232, #176 ), #175 ) ;
#48 = LINE ( 'NONE', #63, #170 ) ;
#49 = AXIS2_PLACEMENT_3D ( 'NONE', #89, #13, #8 ) ;
#50 = VECTOR ( 'NONE', #18, 1000.000000000000000 ) ;
#51 = DIRECTION ( 'NONE',  ( 0.9304796456098634000, -0.3663435943287981500, -0.0000000000000000000 ) ) ;
#52 = VERTEX_POINT ( 'NONE', #316 ) ;
#53 = ORIENTED_EDGE ( 'NONE', *, *, #282, .F. ) ;
#54 = PRODUCT_DEFINITION_CONTEXT ( 'detailed design', #100, 'design' ) ;
#55 = DIRECTION ( 'NONE',  ( -0.0000000000000000000, -1.000000000000000000, -0.0000000000000000000 ) ) ;
#56 = EDGE_CURVE ( 'NONE', #67, #130, #48, .T. ) ;
#57 = LINE ( 'NONE', #161, #318 ) ;
#58 = VECTOR ( 'NONE', #137, 1000.000000000000000 ) ;
#59 = EDGE_LOOP ( 'NONE', ( #191, #152, #195, #148 ) ) ;
#60 = ORIENTED_EDGE ( 'NONE', *, *, #289, .F. ) ;
#61 = AXIS2_PLACEMENT_3D ( 'NONE', #293, #14, #94 ) ;
#62 = DIRECTION ( 'NONE',  ( 0.3663435943287982100, 0.9304796456098634000, -0.0000000000000000000 ) ) ;
#63 = CARTESIAN_POINT ( 'NONE',  ( 59.03733979976226500, -9.846377970899743200, -10.67689286047376900 ) ) ;
#64 = DIRECTION ( 'NONE',  ( -1.814758368136560400E-031, -1.000000000000000000, 0.0000000000000000000 ) ) ;
#65 = STYLED_ITEM ( 'NONE', ( #73 ), #232 ) ;
#66 = FACE_OUTER_BOUND ( 'NONE', #19, .T. ) ;
#67 = VERTEX_POINT ( 'NONE', #212 ) ;
#68 = DIRECTION ( 'NONE',  ( 0.9286830669316111800, -0.3708743199447712100, 0.0000000000000000000 ) ) ;
#69 = VECTOR ( 'NONE', #224, 1000.000000000000000 ) ;
#70 = VECTOR ( 'NONE', #83, 1000.000000000000100 ) ;
#71 = ADVANCED_FACE ( 'NONE', ( #5 ), #234, .F. ) ;
#72 = ADVANCED_FACE ( 'NONE', ( #153 ), #134, .F. ) ;
#73 = PRESENTATION_STYLE_ASSIGNMENT (( #290 ) ) ;
#74 = ORIENTED_EDGE ( 'NONE', *, *, #150, .T. ) ;
#75 = APPLICATION_PROTOCOL_DEFINITION ( 'draft international standard', 'automotive_design', 1998, #227 ) ;
#76 = PRODUCT_DEFINITION_FORMATION_WITH_SPECIFIED_SOURCE ( 'ANY', '', #239, .NOT_KNOWN. ) ;
#77 = APPLICATION_PROTOCOL_DEFINITION ( 'draft international standard', 'automotive_design', 1998, #100 ) ;
#78 = VECTOR ( 'NONE', #265, 1000.000000000000000 ) ;
#79 = ORIENTED_EDGE ( 'NONE', *, *, #205, .T. ) ;
#80 = LINE ( 'NONE', #320, #254 ) ;
#81 = ORIENTED_EDGE ( 'NONE', *, *, #205, .F. ) ;
#82 = CARTESIAN_POINT ( 'NONE',  ( 6.000000000000000000, -6.000000000000000000, 1.000000000000000000 ) ) ;
#83 = DIRECTION ( 'NONE',  ( 0.9286830669316111800, -0.3708743199447712100, 0.0000000000000000000 ) ) ;
#84 = CARTESIAN_POINT ( 'NONE',  ( 59.03733979976226500, -35.88158487674151300, 1.000000000000000000 ) ) ;
#85 = VECTOR ( 'NONE', #283, 1000.000000000000200 ) ;
#86 = CARTESIAN_POINT ( 'NONE',  ( 0.0000000000000000000, -6.000000000000000000, 0.0000000000000000000 ) ) ;
#87 = VERTEX_POINT ( 'NONE', #181 ) ;
#88 = AXIS2_PLACEMENT_3D ( 'NONE', #145, #326, #168 ) ;
#89 = CARTESIAN_POINT ( 'NONE',  ( 0.0000000000000000000, 0.0000000000000000000, 1.000000000000000000 ) ) ;
#90 = DIRECTION ( 'NONE',  ( -0.0000000000000000000, -0.0000000000000000000, -1.000000000000000000 ) ) ;
#91 = LINE ( 'NONE', #187, #215 ) ;
#92 = ORIENTED_EDGE ( 'NONE', *, *, #216, .F. ) ;
#93 = CARTESIAN_POINT ( 'NONE',  ( 0.0000000000000000000, 0.0000000000000000000, 1.000000000000000000 ) ) ;
#94 = DIRECTION ( 'NONE',  ( 0.0000000000000000000, 0.0000000000000000000, -1.000000000000000000 ) ) ;
#95 =( LENGTH_UNIT ( ) NAMED_UNIT ( * ) SI_UNIT ( .MILLI., .METRE. ) );
#96 = ORIENTED_EDGE ( 'NONE', *, *, #327, .F. ) ;
#97 = PLANE ( 'NONE',  #88 ) ;
#98 = FACE_OUTER_BOUND ( 'NONE', #131, .T. ) ;
#99 = ORIENTED_EDGE ( 'NONE', *, *, #167, .T. ) ;
#100 = APPLICATION_CONTEXT ( 'automotive_design' ) ;
#101 = SURFACE_SIDE_STYLE ('',( #295 ) ) ;
#102 = VECTOR ( 'NONE', #68, 1000.000000000000100 ) ;
#103 = VERTEX_POINT ( 'NONE', #29 ) ;
#104 =( LENGTH_UNIT ( ) NAMED_UNIT ( * ) SI_UNIT ( .MILLI., .METRE. ) );
#105 = MECHANICAL_DESIGN_GEOMETRIC_PRESENTATION_REPRESENTATION (  '', ( #229 ), #237 ) ;
#106 = UNCERTAINTY_MEASURE_WITH_UNIT (LENGTH_MEASURE( 1.000000000000000100E-005 ), #333, 'distance_accuracy_value', 'NONE');
#107 = VECTOR ( 'NONE', #118, 1000.000000000000000 ) ;
#108 = DIRECTION ( 'NONE',  ( -0.0000000000000000000, -1.000000000000000000, -0.0000000000000000000 ) ) ;
#109 = VECTOR ( 'NONE', #51, 1000.000000000000000 ) ;
#110 = EDGE_LOOP ( 'NONE', ( #185, #305, #147, #154 ) ) ;
#111 = EDGE_CURVE ( 'NONE', #210, #31, #247, .T. ) ;
#112 = FILL_AREA_STYLE_COLOUR ( '', #11 ) ;
#113 = EDGE_CURVE ( 'NONE', #204, #180, #1, .T. ) ;
#114 = PLANE ( 'NONE',  #49 ) ;
#115 = DIRECTION ( 'NONE',  ( 1.000000000000000000, -0.0000000000000000000, -0.0000000000000000000 ) ) ;
#116 = VECTOR ( 'NONE', #119, 1000.000000000000000 ) ;
#117 = ORIENTED_EDGE ( 'NONE', *, *, #255, .F. ) ;
#118 = DIRECTION ( 'NONE',  ( -1.000000000000000000, 1.814758368136560400E-031, -0.0000000000000000000 ) ) ;
#119 = DIRECTION ( 'NONE',  ( 1.000000000000000000, -0.0000000000000000000, -0.0000000000000000000 ) ) ;
#120 = ORIENTED_EDGE ( 'NONE', *, *, #327, .T. ) ;
#121 = DIRECTION ( 'NONE',  ( -0.2622477466008983900, -0.6566780942004661900, -0.7071067811865438000 ) ) ;
#122 = CARTESIAN_POINT ( 'NONE',  ( 0.0000000000000000000, -6.000000000000000000, 0.0000000000000000000 ) ) ;
#123 = ADVANCED_FACE ( 'NONE', ( #178 ), #287, .F. ) ;
#124 = SURFACE_STYLE_FILL_AREA ( #192 ) ;
#125 = EDGE_LOOP ( 'NONE', ( #314, #28, #139, #252 ) ) ;
#126 = CARTESIAN_POINT ( 'NONE',  ( 0.0000000000000000000, -6.000000000000000000, 1.000000000000000000 ) ) ;
#127 = AXIS2_PLACEMENT_3D ( 'NONE', #222, #121, #328 ) ;
#128 = VECTOR ( 'NONE', #244, 1000.000000000000000 ) ;
#129 = CARTESIAN_POINT ( 'NONE',  ( 4.245038850797154600, -7.703719777548943400E-031, 0.4999999999999991700 ) ) ;
#130 = VERTEX_POINT ( 'NONE', #33 ) ;
#131 = EDGE_LOOP ( 'NONE', ( #322, #79, #279, #207, #164, #117, #270 ) ) ;
#132 = PLANE ( 'NONE',  #26 ) ;
#133 = ORIENTED_EDGE ( 'NONE', *, *, #56, .T. ) ;
#134 = PLANE ( 'NONE',  #155 ) ;
#135 = EDGE_CURVE ( 'NONE', #264, #275, #197, .T. ) ;
#136 = PLANE ( 'NONE',  #221 ) ;
#137 = DIRECTION ( 'NONE',  ( -0.0000000000000000000, -1.000000000000000000, -0.0000000000000000000 ) ) ;
#138 = CARTESIAN_POINT ( 'NONE',  ( 6.000000000000000000, -6.000000000000000000, 0.0000000000000000000 ) ) ;
#139 = ORIENTED_EDGE ( 'NONE', *, *, #246, .F. ) ;
#140 = CARTESIAN_POINT ( 'NONE',  ( 0.3984584301384231400, 0.9977547029969903200, 1.000000000000000000 ) ) ;
#141 = DIRECTION ( 'NONE',  ( 1.000000000000000000, -1.814758368136560400E-031, 0.0000000000000000000 ) ) ;
#142 =( GEOMETRIC_REPRESENTATION_CONTEXT ( 3 ) GLOBAL_UNCERTAINTY_ASSIGNED_CONTEXT ( ( #157 ) ) GLOBAL_UNIT_ASSIGNED_CONTEXT ( ( #95, #218, #43 ) ) REPRESENTATION_CONTEXT ( 'NONE', 'WORKASPACE' ) );
#143 = ORIENTED_EDGE ( 'NONE', *, *, #311, .T. ) ;
#144 = ORIENTED_EDGE ( 'NONE', *, *, #246, .T. ) ;
#145 = CARTESIAN_POINT ( 'NONE',  ( 0.0000000000000000000, -6.000000000000000000, 1.000000000000000000 ) ) ;
#146 = LINE ( 'NONE', #140, #278 ) ;
#147 = ORIENTED_EDGE ( 'NONE', *, *, #271, .F. ) ;
#148 = ORIENTED_EDGE ( 'NONE', *, *, #196, .T. ) ;
#149 =( NAMED_UNIT ( * ) PLANE_ANGLE_UNIT ( ) SI_UNIT ( $, .RADIAN. ) );
#150 = EDGE_CURVE ( 'NONE', #267, #103, #250, .T. ) ;
#151 = LINE ( 'NONE', #44, #50 ) ;
#152 = ORIENTED_EDGE ( 'NONE', *, *, #167, .F. ) ;
#153 = FACE_OUTER_BOUND ( 'NONE', #334, .T. ) ;
#154 = ORIENTED_EDGE ( 'NONE', *, *, #262, .F. ) ;
#155 = AXIS2_PLACEMENT_3D ( 'NONE', #208, #313, #243 ) ;
#156 = CARTESIAN_POINT ( 'NONE',  ( 0.0000000000000000000, 0.0000000000000000000, 1.000000000000000000 ) ) ;
#157 = UNCERTAINTY_MEASURE_WITH_UNIT (LENGTH_MEASURE( 1.000000000000000100E-005 ), #95, 'distance_accuracy_value', 'NONE');
#158 = CARTESIAN_POINT ( 'NONE',  ( 58.85190263978987700, -22.34592641020733000, 0.0000000000000000000 ) ) ;
#159 = VECTOR ( 'NONE', #10, 1000.000000000000000 ) ;
#160 = CARTESIAN_POINT ( 'NONE',  ( 6.000000000000000000, -15.00000000000000000, 1.000000000000000000 ) ) ;
#161 = CARTESIAN_POINT ( 'NONE',  ( 0.0000000000000000000, -6.000000000000000000, 1.000000000000000000 ) ) ;
#162 = CARTESIAN_POINT ( 'NONE',  ( 59.03733979976226500, -35.88158487674151300, 1.000000000000000000 ) ) ;
#163 = LINE ( 'NONE', #200, #226 ) ;
#164 = ORIENTED_EDGE ( 'NONE', *, *, #111, .F. ) ;
#165 = ORIENTED_EDGE ( 'NONE', *, *, #216, .T. ) ;
#166 = CARTESIAN_POINT ( 'NONE',  ( 0.0000000000000000000, 0.0000000000000000000, 0.0000000000000000000 ) ) ;
#167 = EDGE_CURVE ( 'NONE', #87, #210, #231, .T. ) ;
#168 = DIRECTION ( 'NONE',  ( 0.0000000000000000000, 0.0000000000000000000, -1.000000000000000000 ) ) ;
#169 = ADVANCED_FACE ( 'NONE', ( #66 ), #114, .F. ) ;
#170 = VECTOR ( 'NONE', #177, 1000.000000000000000 ) ;
#171 = ADVANCED_FACE ( 'NONE', ( #98 ), #136, .T. ) ;
#172 = FACE_OUTER_BOUND ( 'NONE', #179, .T. ) ;
#173 = ORIENTED_EDGE ( 'NONE', *, *, #34, .T. ) ;
#174 = EDGE_LOOP ( 'NONE', ( #53, #81, #96, #173 ) ) ;
#175 =( GEOMETRIC_REPRESENTATION_CONTEXT ( 3 ) GLOBAL_UNCERTAINTY_ASSIGNED_CONTEXT ( ( #106 ) ) GLOBAL_UNIT_ASSIGNED_CONTEXT ( ( #333, #329, #307 ) ) REPRESENTATION_CONTEXT ( 'NONE', 'WORKASPACE' ) );
#176 = AXIS2_PLACEMENT_3D ( 'NONE', #20, #25, #24 ) ;
#177 = DIRECTION ( 'NONE',  ( -0.0000000000000000000, -0.7327527007140524100, 0.6804950254015546000 ) ) ;
#178 = FACE_OUTER_BOUND ( 'NONE', #41, .T. ) ;
#179 = EDGE_LOOP ( 'NONE', ( #209, #198, #92, #99 ) ) ;
#180 = VERTEX_POINT ( 'NONE', #38 ) ;
#181 = CARTESIAN_POINT ( 'NONE',  ( 6.000000000000000000, -6.000000000000000000, 1.000000000000000000 ) ) ;
#182 = CARTESIAN_POINT ( 'NONE',  ( 4.245038850797154600, -7.703719777548943400E-031, 0.5000000000000004400 ) ) ;
#183 = CARTESIAN_POINT ( 'NONE',  ( 59.03733979976226500, -21.88158487674151700, 0.0000000000000000000 ) ) ;
#184 = EDGE_CURVE ( 'NONE', #103, #275, #37, .T. ) ;
#185 = ORIENTED_EDGE ( 'NONE', *, *, #56, .F. ) ;
#186 = DIRECTION ( 'NONE',  ( -0.0000000000000000000, -0.0000000000000000000, -1.000000000000000000 ) ) ;
#187 = CARTESIAN_POINT ( 'NONE',  ( 0.0000000000000000000, -6.000000000000000000, 1.000000000000000000 ) ) ;
#188 = DIRECTION ( 'NONE',  ( -0.0000000000000000000, -1.000000000000000000, -0.0000000000000000000 ) ) ;
#189 = LINE ( 'NONE', #259, #256 ) ;
#190 = ORIENTED_EDGE ( 'NONE', *, *, #135, .T. ) ;
#191 = ORIENTED_EDGE ( 'NONE', *, *, #255, .T. ) ;
#192 = FILL_AREA_STYLE ('',( #112 ) ) ;
#193 = EDGE_CURVE ( 'NONE', #257, #31, #27, .T. ) ;
#194 = CARTESIAN_POINT ( 'NONE',  ( 59.03733979976226500, -35.88158487674151300, 1.000000000000000000 ) ) ;
#195 = ORIENTED_EDGE ( 'NONE', *, *, #266, .F. ) ;
#196 = EDGE_CURVE ( 'NONE', #298, #2, #91, .T. ) ;
#197 = LINE ( 'NONE', #36, #310 ) ;
#198 = ORIENTED_EDGE ( 'NONE', *, *, #193, .F. ) ;
#199 = MECHANICAL_DESIGN_GEOMETRIC_PRESENTATION_REPRESENTATION (  '', ( #65 ), #142 ) ;
#200 = CARTESIAN_POINT ( 'NONE',  ( 59.03733979976226500, -21.88158487674151700, 1.000000000000000000 ) ) ;
#201 = ADVANCED_FACE ( 'NONE', ( #172 ), #268, .F. ) ;
#202 = FILL_AREA_STYLE ('',( #308 ) ) ;
#203 = ORIENTED_EDGE ( 'NONE', *, *, #317, .T. ) ;
#204 = VERTEX_POINT ( 'NONE', #162 ) ;
#205 = EDGE_CURVE ( 'NONE', #264, #233, #303, .T. ) ;
#206 = LINE ( 'NONE', #294, #116 ) ;
#207 = ORIENTED_EDGE ( 'NONE', *, *, #317, .F. ) ;
#208 = CARTESIAN_POINT ( 'NONE',  ( 59.03733979976226500, -21.88158487674151700, 1.000000000000000000 ) ) ;
#209 = ORIENTED_EDGE ( 'NONE', *, *, #111, .T. ) ;
#210 = VERTEX_POINT ( 'NONE', #138 ) ;
#211 = DIRECTION ( 'NONE',  ( 0.9286830669316111800, -0.3708743199447712100, 0.0000000000000000000 ) ) ;
#212 = CARTESIAN_POINT ( 'NONE',  ( 59.03733979976226500, -21.88158487674151700, 0.4999999999999978400 ) ) ;
#213 = DIRECTION ( 'NONE',  ( 0.0000000000000000000, 0.0000000000000000000, -1.000000000000000000 ) ) ;
#214 = CARTESIAN_POINT ( 'NONE',  ( 6.000000000000000000, -6.000000000000000000, 1.000000000000000000 ) ) ;
#215 = VECTOR ( 'NONE', #90, 1000.000000000000000 ) ;
#216 = EDGE_CURVE ( 'NONE', #87, #257, #325, .T. ) ;
#217 = ORIENTED_EDGE ( 'NONE', *, *, #266, .T. ) ;
#218 =( NAMED_UNIT ( * ) PLANE_ANGLE_UNIT ( ) SI_UNIT ( $, .RADIAN. ) );
#219 = SURFACE_SIDE_STYLE ('',( #124 ) ) ;
#220 = DIRECTION ( 'NONE',  ( -0.9286830669316111800, 0.3708743199447712100, 0.0000000000000000000 ) ) ;
#221 = AXIS2_PLACEMENT_3D ( 'NONE', #324, #213, #15 ) ;
#222 = CARTESIAN_POINT ( 'NONE',  ( 0.3984584301384231400, 0.9977547029969903200, 1.000000000000000000 ) ) ;
#223 = LINE ( 'NONE', #129, #70 ) ;
#224 = DIRECTION ( 'NONE',  ( 0.9304796456098634000, -0.3663435943287981500, -0.0000000000000000000 ) ) ;
#225 = CARTESIAN_POINT ( 'NONE',  ( 59.03733979976226500, -35.88158487674151300, 0.0000000000000000000 ) ) ;
#226 = VECTOR ( 'NONE', #280, 1000.000000000000000 ) ;
#227 = APPLICATION_CONTEXT ( 'automotive_design' ) ;
#228 = ORIENTED_EDGE ( 'NONE', *, *, #150, .F. ) ;
#229 = STYLED_ITEM ( 'NONE', ( #235 ), #47 ) ;
#230 = DIRECTION ( 'NONE',  ( 0.0000000000000000000, 0.7327527007140559600, 0.6804950254015507100 ) ) ;
#231 = LINE ( 'NONE', #214, #159 ) ;
#232 = MANIFOLD_SOLID_BREP ( 'Chanfrein2', #22 ) ;
#233 = VERTEX_POINT ( 'NONE', #272 ) ;
#234 = PLANE ( 'NONE',  #42 ) ;
#235 = PRESENTATION_STYLE_ASSIGNMENT (( #258 ) ) ;
#236 = DIRECTION ( 'NONE',  ( 0.0000000000000000000, 1.000000000000000000, -0.0000000000000000000 ) ) ;
#237 =( GEOMETRIC_REPRESENTATION_CONTEXT ( 3 ) GLOBAL_UNCERTAINTY_ASSIGNED_CONTEXT ( ( #319 ) ) GLOBAL_UNIT_ASSIGNED_CONTEXT ( ( #104, #149, #331 ) ) REPRESENTATION_CONTEXT ( 'NONE', 'WORKASPACE' ) );
#238 = FACE_OUTER_BOUND ( 'NONE', #110, .T. ) ;
#239 = PRODUCT ( 'Blade', 'Blade', '', ( #260 ) ) ;
#240 = CARTESIAN_POINT ( 'NONE',  ( 6.000000000000000000, -15.00000000000000000, 0.0000000000000000000 ) ) ;
#241 = ORIENTED_EDGE ( 'NONE', *, *, #113, .F. ) ;
#242 = PRODUCT_DEFINITION_SHAPE ( 'NONE', 'NONE',  #323 ) ;
#243 = DIRECTION ( 'NONE',  ( 0.0000000000000000000, 0.0000000000000000000, 1.000000000000000000 ) ) ;
#244 = DIRECTION ( 'NONE',  ( -0.0000000000000000000, -0.0000000000000000000, -1.000000000000000000 ) ) ;
#245 = DIRECTION ( 'NONE',  ( -1.000000000000000000, 1.814758368136560400E-031, -0.0000000000000000000 ) ) ;
#246 = EDGE_CURVE ( 'NONE', #103, #298, #57, .T. ) ;
#247 = LINE ( 'NONE', #240, #301 ) ;
#248 = DIRECTION ( 'NONE',  ( -0.0000000000000000000, -0.0000000000000000000, -1.000000000000000000 ) ) ;
#249 = COLOUR_RGB ( '',0.7529411764705882200, 0.7529411764705882200, 0.7529411764705882200 ) ;
#250 = LINE ( 'NONE', #93, #107 ) ;
#251 = ORIENTED_EDGE ( 'NONE', *, *, #311, .F. ) ;
#252 = ORIENTED_EDGE ( 'NONE', *, *, #184, .T. ) ;
#253 = PRESENTATION_LAYER_ASSIGNMENT (  '', '', ( #229 ) ) ;
#254 = VECTOR ( 'NONE', #115, 1000.000000000000000 ) ;
#255 = EDGE_CURVE ( 'NONE', #2, #210, #80, .T. ) ;
#256 = VECTOR ( 'NONE', #230, 1000.000000000000000 ) ;
#257 = VERTEX_POINT ( 'NONE', #160 ) ;
#258 = SURFACE_STYLE_USAGE ( .BOTH. , #101 ) ;
#259 = CARTESIAN_POINT ( 'NONE',  ( 59.03733979976226500, -10.13278164795353400, 11.41091461528684700 ) ) ;
#260 = PRODUCT_CONTEXT ( 'NONE', #227, 'mechanical' ) ;
#261 = SHAPE_DEFINITION_REPRESENTATION ( #242, #47 ) ;
#262 = EDGE_CURVE ( 'NONE', #130, #267, #146, .T. ) ;
#263 = DIRECTION ( 'NONE',  ( 0.0000000000000000000, 0.0000000000000000000, 1.000000000000000000 ) ) ;
#264 = VERTEX_POINT ( 'NONE', #299 ) ;
#265 = DIRECTION ( 'NONE',  ( -0.0000000000000000000, 1.000000000000000000, -0.0000000000000000000 ) ) ;
#266 = EDGE_CURVE ( 'NONE', #298, #87, #206, .T. ) ;
#267 = VERTEX_POINT ( 'NONE', #276 ) ;
#268 = PLANE ( 'NONE',  #61 ) ;
#269 = VECTOR ( 'NONE', #248, 1000.000000000000000 ) ;
#270 = ORIENTED_EDGE ( 'NONE', *, *, #302, .F. ) ;
#271 = EDGE_CURVE ( 'NONE', #267, #52, #151, .T. ) ;
#272 = CARTESIAN_POINT ( 'NONE',  ( 59.03733979976226500, -22.41998168594792400, 8.673617379884035500E-016 ) ) ;
#273 = ORIENTED_EDGE ( 'NONE', *, *, #289, .T. ) ;
#274 = ADVANCED_FACE ( 'NONE', ( #321 ), #97, .F. ) ;
#275 = VERTEX_POINT ( 'NONE', #166 ) ;
#276 = CARTESIAN_POINT ( 'NONE',  ( 2.896873250993822400, -4.621454283512179000E-031, 1.000000000000000000 ) ) ;
#277 = ADVANCED_FACE ( 'NONE', ( #238 ), #46, .F. ) ;
#278 = VECTOR ( 'NONE', #220, 1000.000000000000100 ) ;
#279 = ORIENTED_EDGE ( 'NONE', *, *, #4, .F. ) ;
#280 = DIRECTION ( 'NONE',  ( -0.0000000000000000000, 1.000000000000000000, -0.0000000000000000000 ) ) ;
#281 = ORIENTED_EDGE ( 'NONE', *, *, #4, .T. ) ;
#282 = EDGE_CURVE ( 'NONE', #233, #67, #189, .T. ) ;
#283 = DIRECTION ( 'NONE',  ( -0.9375947782829189300, 1.701507969810069900E-031, -0.3477298257794462200 ) ) ;
#284 = ORIENTED_EDGE ( 'NONE', *, *, #271, .T. ) ;
#285 = CARTESIAN_POINT ( 'NONE',  ( 6.000000000000000000, -15.00000000000000000, 0.0000000000000000000 ) ) ;
#286 = FACE_OUTER_BOUND ( 'NONE', #174, .T. ) ;
#287 = PLANE ( 'NONE',  #17 ) ;
#288 = CARTESIAN_POINT ( 'NONE',  ( 6.000000000000000000, -15.00000000000000000, 1.000000000000000000 ) ) ;
#289 = EDGE_CURVE ( 'NONE', #257, #204, #312, .T. ) ;
#290 = SURFACE_STYLE_USAGE ( .BOTH. , #219 ) ;
#291 = VECTOR ( 'NONE', #186, 1000.000000000000000 ) ;
#292 = FACE_OUTER_BOUND ( 'NONE', #306, .T. ) ;
#293 = CARTESIAN_POINT ( 'NONE',  ( 6.000000000000000000, -15.00000000000000000, 1.000000000000000000 ) ) ;
#294 = CARTESIAN_POINT ( 'NONE',  ( 6.000000000000000000, -6.000000000000000000, 1.000000000000000000 ) ) ;
#295 = SURFACE_STYLE_FILL_AREA ( #202 ) ;
#296 = CARTESIAN_POINT ( 'NONE',  ( 6.000000000000000000, -15.00000000000000000, 1.000000000000000000 ) ) ;
#297 = VECTOR ( 'NONE', #55, 1000.000000000000000 ) ;
#298 = VERTEX_POINT ( 'NONE', #126 ) ;
#299 = CARTESIAN_POINT ( 'NONE',  ( 2.896873250993798000, -5.257124973671958300E-031, 0.0000000000000000000 ) ) ;
#300 = ORIENTED_EDGE ( 'NONE', *, *, #184, .F. ) ;
#301 = VECTOR ( 'NONE', #108, 1000.000000000000000 ) ;
#302 = EDGE_CURVE ( 'NONE', #275, #2, #30, .T. ) ;
#303 = LINE ( 'NONE', #158, #102 ) ;
#304 = CARTESIAN_POINT ( 'NONE',  ( 4.245038850797154600, -7.703719777548943400E-031, 0.5000000000000004400 ) ) ;
#305 = ORIENTED_EDGE ( 'NONE', *, *, #34, .F. ) ;
#306 = EDGE_LOOP ( 'NONE', ( #203, #241, #60, #330 ) ) ;
#307 =( NAMED_UNIT ( * ) SI_UNIT ( $, .STERADIAN. ) SOLID_ANGLE_UNIT ( ) );
#308 = FILL_AREA_STYLE_COLOUR ( '', #249 ) ;
#309 = LINE ( 'NONE', #304, #85 ) ;
#310 = VECTOR ( 'NONE', #245, 1000.000000000000000 ) ;
#311 = EDGE_CURVE ( 'NONE', #204, #130, #163, .T. ) ;
#312 = LINE ( 'NONE', #194, #109 ) ;
#313 = DIRECTION ( 'NONE',  ( -1.000000000000000000, 0.0000000000000000000, 0.0000000000000000000 ) ) ;
#314 = ORIENTED_EDGE ( 'NONE', *, *, #302, .T. ) ;
#315 = ORIENTED_EDGE ( 'NONE', *, *, #282, .T. ) ;
#316 = CARTESIAN_POINT ( 'NONE',  ( 4.245038850797154600, -7.703719777548943400E-031, 0.4999999999999991700 ) ) ;
#317 = EDGE_CURVE ( 'NONE', #31, #180, #40, .T. ) ;
#318 = VECTOR ( 'NONE', #188, 1000.000000000000000 ) ;
#319 = UNCERTAINTY_MEASURE_WITH_UNIT (LENGTH_MEASURE( 1.000000000000000100E-005 ), #104, 'distance_accuracy_value', 'NONE');
#320 = CARTESIAN_POINT ( 'NONE',  ( 6.000000000000000000, -6.000000000000000000, 0.0000000000000000000 ) ) ;
#321 = FACE_OUTER_BOUND ( 'NONE', #125, .T. ) ;
#322 = ORIENTED_EDGE ( 'NONE', *, *, #135, .F. ) ;
#323 = PRODUCT_DEFINITION ( 'UNKNOWN', '', #76, #54 ) ;
#324 = CARTESIAN_POINT ( 'NONE',  ( 0.0000000000000000000, 0.0000000000000000000, 0.0000000000000000000 ) ) ;
#325 = LINE ( 'NONE', #288, #58 ) ;
#326 = DIRECTION ( 'NONE',  ( 1.000000000000000000, 0.0000000000000000000, 0.0000000000000000000 ) ) ;
#327 = EDGE_CURVE ( 'NONE', #52, #264, #309, .T. ) ;
#328 = DIRECTION ( 'NONE',  ( -0.9286830669316111800, 0.3708743199447712100, 0.0000000000000000000 ) ) ;
#329 =( NAMED_UNIT ( * ) PLANE_ANGLE_UNIT ( ) SI_UNIT ( $, .RADIAN. ) );
#330 = ORIENTED_EDGE ( 'NONE', *, *, #193, .T. ) ;
#331 =( NAMED_UNIT ( * ) SI_UNIT ( $, .STERADIAN. ) SOLID_ANGLE_UNIT ( ) );
#332 = PRESENTATION_LAYER_ASSIGNMENT (  '', '', ( #65 ) ) ;
#333 =( LENGTH_UNIT ( ) NAMED_UNIT ( * ) SI_UNIT ( .MILLI., .METRE. ) );
#334 = EDGE_LOOP ( 'NONE', ( #281, #315, #133, #251, #23 ) ) ;
ENDSEC;
END-ISO-10303-21;
