ISO-10303-21;
HEADER;
FILE_DESCRIPTION (( 'STEP AP214' ),
    '1' );
FILE_NAME ('DE-24-12-18-03-tube rigide court.STEP',
    '2019-07-19T13:32:22',
    ( '' ),
    ( '' ),
    'SwSTEP 2.0',
    'SolidWorks 2019',
    '' );
FILE_SCHEMA (( 'AUTOMOTIVE_DESIGN' ));
ENDSEC;

DATA;
#1 = CARTESIAN_POINT ( 'NONE',  ( 0.0000000000000000000, 0.0000000000000000000, 19.50000000000000000 ) ) ;
#2 = DIRECTION ( 'NONE',  ( -0.0000000000000000000, -0.0000000000000000000, -1.000000000000000000 ) ) ;
#3 = APPLICATION_CONTEXT ( 'automotive_design' ) ;
#4 = LINE ( 'NONE', #107, #275 ) ;
#5 = MECHANICAL_DESIGN_GEOMETRIC_PRESENTATION_REPRESENTATION (  '', ( #243 ), #285 ) ;
#6 = DIRECTION ( 'NONE',  ( -1.000000000000000000, 0.0000000000000000000, 0.0000000000000000000 ) ) ;
#7 = EDGE_CURVE ( 'NONE', #116, #141, #249, .T. ) ;
#8 = DIRECTION ( 'NONE',  ( -0.0000000000000000000, -0.0000000000000000000, 1.000000000000000000 ) ) ;
#9 = DIRECTION ( 'NONE',  ( 0.0000000000000000000, 0.0000000000000000000, -1.000000000000000000 ) ) ;
#10 = PRESENTATION_STYLE_ASSIGNMENT (( #227 ) ) ;
#11 = CARTESIAN_POINT ( 'NONE',  ( 0.0000000000000000000, 0.0000000000000000000, 20.00000000000000000 ) ) ;
#12 = PRESENTATION_LAYER_ASSIGNMENT (  '', '', ( #240 ) ) ;
#13 = EDGE_CURVE ( 'NONE', #238, #117, #157, .T. ) ;
#14 = DIRECTION ( 'NONE',  ( -0.0000000000000000000, -0.0000000000000000000, 1.000000000000000000 ) ) ;
#15 = MANIFOLD_SOLID_BREP ( 'Chanfrein1', #76 ) ;
#16 = ORIENTED_EDGE ( 'NONE', *, *, #269, .F. ) ;
#17 = AXIS2_PLACEMENT_3D ( 'NONE', #36, #136, #228 ) ;
#18 = ORIENTED_EDGE ( 'NONE', *, *, #65, .F. ) ;
#19 = ORIENTED_EDGE ( 'NONE', *, *, #46, .F. ) ;
#20 = SURFACE_STYLE_USAGE ( .BOTH. , #236 ) ;
#21 = ORIENTED_EDGE ( 'NONE', *, *, #183, .F. ) ;
#22 = ORIENTED_EDGE ( 'NONE', *, *, #121, .F. ) ;
#23 = CARTESIAN_POINT ( 'NONE',  ( -9.000000000000000000, 1.102182119232617714E-15, 0.5000000000000038858 ) ) ;
#24 =( GEOMETRIC_REPRESENTATION_CONTEXT ( 3 ) GLOBAL_UNCERTAINTY_ASSIGNED_CONTEXT ( ( #280 ) ) GLOBAL_UNIT_ASSIGNED_CONTEXT ( ( #90, #64, #38 ) ) REPRESENTATION_CONTEXT ( 'NONE', 'WORKASPACE' ) );
#25 = VECTOR ( 'NONE', #293, 1000.000000000000000 ) ;
#26 = DIRECTION ( 'NONE',  ( -0.0000000000000000000, -0.0000000000000000000, -1.000000000000000000 ) ) ;
#27 = CARTESIAN_POINT ( 'NONE',  ( -8.500000000000000000, 0.0000000000000000000, 20.00000000000000000 ) ) ;
#28 = DIRECTION ( 'NONE',  ( 1.000000000000000000, 0.0000000000000000000, -0.0000000000000000000 ) ) ;
#29 = EDGE_CURVE ( 'NONE', #141, #116, #218, .T. ) ;
#30 = CYLINDRICAL_SURFACE ( 'NONE', #168, 9.000000000000000000 ) ;
#31 = APPLICATION_CONTEXT ( 'automotive_design' ) ;
#32 = VECTOR ( 'NONE', #273, 1000.000000000000000 ) ;
#33 = DIRECTION ( 'NONE',  ( -0.0000000000000000000, -0.0000000000000000000, -1.000000000000000000 ) ) ;
#34 = DIRECTION ( 'NONE',  ( 1.000000000000000000, 0.0000000000000000000, 0.0000000000000000000 ) ) ;
#35 = SURFACE_STYLE_FILL_AREA ( #251 ) ;
#36 = CARTESIAN_POINT ( 'NONE',  ( 0.0000000000000000000, 0.0000000000000000000, 0.0000000000000000000 ) ) ;
#37 = DIRECTION ( 'NONE',  ( 0.0000000000000000000, 0.0000000000000000000, -1.000000000000000000 ) ) ;
#38 =( NAMED_UNIT ( * ) SI_UNIT ( $, .STERADIAN. ) SOLID_ANGLE_UNIT ( ) );
#39 = EDGE_CURVE ( 'NONE', #211, #45, #242, .T. ) ;
#40 = EDGE_LOOP ( 'NONE', ( #210, #306, #67, #214 ) ) ;
#41 = CIRCLE ( 'NONE', #257, 9.000000000000000000 ) ;
#42 = VECTOR ( 'NONE', #26, 1000.000000000000000 ) ;
#43 = AXIS2_PLACEMENT_3D ( 'NONE', #310, #172, #267 ) ;
#44 = ORIENTED_EDGE ( 'NONE', *, *, #29, .F. ) ;
#45 = VERTEX_POINT ( 'NONE', #27 ) ;
#46 = EDGE_CURVE ( 'NONE', #148, #141, #126, .T. ) ;
#47 = PRESENTATION_STYLE_ASSIGNMENT (( #20 ) ) ;
#48 = CARTESIAN_POINT ( 'NONE',  ( -8.500000000000000000, 0.0000000000000000000, 20.00000000000000000 ) ) ;
#49 = AXIS2_PLACEMENT_3D ( 'NONE', #248, #33, #132 ) ;
#50 = DIRECTION ( 'NONE',  ( 0.0000000000000000000, 0.0000000000000000000, 1.000000000000000000 ) ) ;
#51 = ORIENTED_EDGE ( 'NONE', *, *, #286, .T. ) ;
#52 = CARTESIAN_POINT ( 'NONE',  ( 8.499999999999991118, 0.0000000000000000000, 0.0000000000000000000 ) ) ;
#53 = CARTESIAN_POINT ( 'NONE',  ( 0.0000000000000000000, 0.0000000000000000000, 20.00000000000000000 ) ) ;
#54 =( GEOMETRIC_REPRESENTATION_CONTEXT ( 3 ) GLOBAL_UNCERTAINTY_ASSIGNED_CONTEXT ( ( #134 ) ) GLOBAL_UNIT_ASSIGNED_CONTEXT ( ( #301, #277, #253 ) ) REPRESENTATION_CONTEXT ( 'NONE', 'WORKASPACE' ) );
#55 = PLANE ( 'NONE',  #143 ) ;
#56 = DIRECTION ( 'NONE',  ( -0.0000000000000000000, -0.0000000000000000000, -1.000000000000000000 ) ) ;
#57 = FACE_OUTER_BOUND ( 'NONE', #118, .T. ) ;
#58 = AXIS2_PLACEMENT_3D ( 'NONE', #226, #9, #110 ) ;
#59 = AXIS2_PLACEMENT_3D ( 'NONE', #270, #56, #153 ) ;
#60 = FACE_OUTER_BOUND ( 'NONE', #188, .T. ) ;
#61 = FACE_OUTER_BOUND ( 'NONE', #77, .T. ) ;
#62 = DIRECTION ( 'NONE',  ( 0.7071067811865500152, 0.0000000000000000000, 0.7071067811865451302 ) ) ;
#63 = SHAPE_DEFINITION_REPRESENTATION ( #149, #131 ) ;
#64 =( NAMED_UNIT ( * ) PLANE_ANGLE_UNIT ( ) SI_UNIT ( $, .RADIAN. ) );
#65 = EDGE_CURVE ( 'NONE', #211, #117, #105, .T. ) ;
#66 = ORIENTED_EDGE ( 'NONE', *, *, #309, .F. ) ;
#67 = ORIENTED_EDGE ( 'NONE', *, *, #7, .F. ) ;
#68 = COLOUR_RGB ( '',0.7921568627450980005, 0.8196078431372548767, 0.9333333333333333481 ) ;
#69 = AXIS2_PLACEMENT_3D ( 'NONE', #53, #151, #244 ) ;
#70 = PRESENTATION_LAYER_ASSIGNMENT (  '', '', ( #243 ) ) ;
#71 = ORIENTED_EDGE ( 'NONE', *, *, #39, .T. ) ;
#72 = EDGE_CURVE ( 'NONE', #45, #238, #181, .T. ) ;
#73 = DIRECTION ( 'NONE',  ( 1.000000000000000000, 0.0000000000000000000, 0.0000000000000000000 ) ) ;
#74 = CONICAL_SURFACE ( 'NONE', #156, 9.000000000000000000, 0.7853981633974517207 ) ;
#75 = ORIENTED_EDGE ( 'NONE', *, *, #7, .T. ) ;
#76 = CLOSED_SHELL ( 'NONE', ( #304, #230, #91, #200, #127, #263, #162, #154, #255, #235 ) ) ;
#77 = EDGE_LOOP ( 'NONE', ( #147, #284 ) ) ;
#78 = CARTESIAN_POINT ( 'NONE',  ( 0.0000000000000000000, 0.0000000000000000000, 20.00000000000000000 ) ) ;
#79 = CARTESIAN_POINT ( 'NONE',  ( 9.000000000000000000, 1.102182119232617714E-15, 0.5000000000000038858 ) ) ;
#80 = FACE_OUTER_BOUND ( 'NONE', #314, .T. ) ;
#81 = PRODUCT ( 'DE-24-12-18-03-tube rigide court', 'DE-24-12-18-03-tube rigide court', '', ( #184 ) ) ;
#82 = PRODUCT_RELATED_PRODUCT_CATEGORY ( 'part', '', ( #81 ) ) ;
#83 = CARTESIAN_POINT ( 'NONE',  ( 0.0000000000000000000, 0.0000000000000000000, 0.0000000000000000000 ) ) ;
#84 = EDGE_CURVE ( 'NONE', #144, #122, #239, .T. ) ;
#85 = LINE ( 'NONE', #177, #32 ) ;
#86 = AXIS2_PLACEMENT_3D ( 'NONE', #102, #195, #291 ) ;
#87 = CARTESIAN_POINT ( 'NONE',  ( 0.0000000000000000000, 0.0000000000000000000, 0.5000000000000038858 ) ) ;
#88 = DIRECTION ( 'NONE',  ( 1.000000000000000000, 0.0000000000000000000, 0.0000000000000000000 ) ) ;
#89 = DIRECTION ( 'NONE',  ( 1.000000000000000000, 0.0000000000000000000, 0.0000000000000000000 ) ) ;
#90 =( LENGTH_UNIT ( ) NAMED_UNIT ( * ) SI_UNIT ( .MILLI., .METRE. ) );
#91 = ADVANCED_FACE ( 'NONE', ( #216 ), #313, .F. ) ;
#92 = ORIENTED_EDGE ( 'NONE', *, *, #286, .F. ) ;
#93 = ORIENTED_EDGE ( 'NONE', *, *, #106, .T. ) ;
#94 = ORIENTED_EDGE ( 'NONE', *, *, #207, .T. ) ;
#95 = PRODUCT_DEFINITION_FORMATION_WITH_SPECIFIED_SOURCE ( 'ANY', '', #81, .NOT_KNOWN. ) ;
#96 =( NAMED_UNIT ( * ) PLANE_ANGLE_UNIT ( ) SI_UNIT ( $, .RADIAN. ) );
#97 = FILL_AREA_STYLE_COLOUR ( '', #113 ) ;
#98 = EDGE_CURVE ( 'NONE', #45, #211, #259, .T. ) ;
#99 = ORIENTED_EDGE ( 'NONE', *, *, #84, .T. ) ;
#100 = AXIS2_PLACEMENT_3D ( 'NONE', #11, #112, #205 ) ;
#101 = VERTEX_POINT ( 'NONE', #52 ) ;
#102 = CARTESIAN_POINT ( 'NONE',  ( 0.0000000000000000000, 0.0000000000000000000, 20.00000000000000000 ) ) ;
#103 = ORIENTED_EDGE ( 'NONE', *, *, #212, .F. ) ;
#104 = DIRECTION ( 'NONE',  ( 0.0000000000000000000, 0.0000000000000000000, -1.000000000000000000 ) ) ;
#105 = LINE ( 'NONE', #198, #25 ) ;
#106 = EDGE_CURVE ( 'NONE', #117, #123, #150, .T. ) ;
#107 = CARTESIAN_POINT ( 'NONE',  ( -7.500000000000000000, 0.0000000000000000000, 20.00000000000000000 ) ) ;
#108 = CARTESIAN_POINT ( 'NONE',  ( 0.0000000000000000000, 0.0000000000000000000, 0.0000000000000000000 ) ) ;
#109 = DIRECTION ( 'NONE',  ( 1.000000000000000000, 0.0000000000000000000, 0.0000000000000000000 ) ) ;
#110 = DIRECTION ( 'NONE',  ( -1.000000000000000000, 0.0000000000000000000, 0.0000000000000000000 ) ) ;
#111 = AXIS2_PLACEMENT_3D ( 'NONE', #167, #287, #73 ) ;
#112 = DIRECTION ( 'NONE',  ( 0.0000000000000000000, 0.0000000000000000000, 1.000000000000000000 ) ) ;
#113 = COLOUR_RGB ( '',0.7921568627450980005, 0.8196078431372548767, 0.9333333333333333481 ) ;
#114 = DIRECTION ( 'NONE',  ( 1.000000000000000000, 0.0000000000000000000, 0.0000000000000000000 ) ) ;
#115 = APPLICATION_PROTOCOL_DEFINITION ( 'draft international standard', 'automotive_design', 1998, #31 ) ;
#116 = VERTEX_POINT ( 'NONE', #125 ) ;
#117 = VERTEX_POINT ( 'NONE', #220 ) ;
#118 = EDGE_LOOP ( 'NONE', ( #231, #93, #166, #103 ) ) ;
#119 = ORIENTED_EDGE ( 'NONE', *, *, #98, .F. ) ;
#120 = FILL_AREA_STYLE ('',( #97 ) ) ;
#121 = EDGE_CURVE ( 'NONE', #117, #238, #179, .T. ) ;
#122 = VERTEX_POINT ( 'NONE', #292 ) ;
#123 = VERTEX_POINT ( 'NONE', #79 ) ;
#124 = DIRECTION ( 'NONE',  ( -0.7071067811865500152, 8.659560562354963673E-17, 0.7071067811865451302 ) ) ;
#125 = CARTESIAN_POINT ( 'NONE',  ( -7.500000000000000000, 0.0000000000000000000, 0.0000000000000000000 ) ) ;
#126 = LINE ( 'NONE', #221, #204 ) ;
#127 = ADVANCED_FACE ( 'NONE', ( #173, #268 ), #55, .T. ) ;
#128 = CARTESIAN_POINT ( 'NONE',  ( 7.500000000000000000, 9.184850993605147944E-16, 0.0000000000000000000 ) ) ;
#129 = CARTESIAN_POINT ( 'NONE',  ( 0.0000000000000000000, 0.0000000000000000000, 20.00000000000000000 ) ) ;
#130 = CIRCLE ( 'NONE', #305, 8.499999999999991118 ) ;
#131 = ADVANCED_BREP_SHAPE_REPRESENTATION ( 'DE-24-12-18-03-tube rigide court', ( #15, #137 ), #24 ) ;
#132 = DIRECTION ( 'NONE',  ( -1.000000000000000000, 0.0000000000000000000, 0.0000000000000000000 ) ) ;
#133 = FACE_OUTER_BOUND ( 'NONE', #307, .T. ) ;
#134 = UNCERTAINTY_MEASURE_WITH_UNIT (LENGTH_MEASURE( 1.000000000000000082E-05 ), #301, 'distance_accuracy_value', 'NONE');
#135 = SURFACE_SIDE_STYLE ('',( #35 ) ) ;
#136 = DIRECTION ( 'NONE',  ( 0.0000000000000000000, 0.0000000000000000000, 1.000000000000000000 ) ) ;
#137 = AXIS2_PLACEMENT_3D ( 'NONE', #206, #303, #89 ) ;
#138 = DIRECTION ( 'NONE',  ( -1.000000000000000000, 0.0000000000000000000, 0.0000000000000000000 ) ) ;
#139 = AXIS2_PLACEMENT_3D ( 'NONE', #262, #50, #190 ) ;
#140 = ORIENTED_EDGE ( 'NONE', *, *, #13, .F. ) ;
#141 = VERTEX_POINT ( 'NONE', #128 ) ;
#142 = CIRCLE ( 'NONE', #178, 7.500000000000000000 ) ;
#143 = AXIS2_PLACEMENT_3D ( 'NONE', #152, #245, #28 ) ;
#144 = VERTEX_POINT ( 'NONE', #222 ) ;
#145 = UNCERTAINTY_MEASURE_WITH_UNIT (LENGTH_MEASURE( 1.000000000000000082E-05 ), #261, 'distance_accuracy_value', 'NONE');
#146 = EDGE_CURVE ( 'NONE', #208, #116, #4, .T. ) ;
#147 = ORIENTED_EDGE ( 'NONE', *, *, #175, .T. ) ;
#148 = VERTEX_POINT ( 'NONE', #294 ) ;
#149 = PRODUCT_DEFINITION_SHAPE ( 'NONE', 'NONE',  #246 ) ;
#150 = LINE ( 'NONE', #241, #42 ) ;
#151 = DIRECTION ( 'NONE',  ( 0.0000000000000000000, 0.0000000000000000000, 1.000000000000000000 ) ) ;
#152 = CARTESIAN_POINT ( 'NONE',  ( 0.0000000000000000000, 0.0000000000000000000, 20.00000000000000000 ) ) ;
#153 = DIRECTION ( 'NONE',  ( -1.000000000000000000, 0.0000000000000000000, 0.0000000000000000000 ) ) ;
#154 = ADVANCED_FACE ( 'NONE', ( #80 ), #174, .F. ) ;
#155 = CYLINDRICAL_SURFACE ( 'NONE', #49, 9.000000000000000000 ) ;
#156 = AXIS2_PLACEMENT_3D ( 'NONE', #158, #250, #34 ) ;
#157 = CIRCLE ( 'NONE', #111, 9.000000000000000000 ) ;
#158 = CARTESIAN_POINT ( 'NONE',  ( 0.0000000000000000000, 0.0000000000000000000, 0.5000000000000038858 ) ) ;
#159 = FILL_AREA_STYLE_COLOUR ( '', #68 ) ;
#160 = FACE_BOUND ( 'NONE', #170, .T. ) ;
#161 = FACE_OUTER_BOUND ( 'NONE', #219, .T. ) ;
#162 = ADVANCED_FACE ( 'NONE', ( #247 ), #30, .T. ) ;
#163 = ORIENTED_EDGE ( 'NONE', *, *, #288, .T. ) ;
#164 = ORIENTED_EDGE ( 'NONE', *, *, #98, .T. ) ;
#165 = VECTOR ( 'NONE', #295, 1000.000000000000000 ) ;
#166 = ORIENTED_EDGE ( 'NONE', *, *, #309, .T. ) ;
#167 = CARTESIAN_POINT ( 'NONE',  ( 0.0000000000000000000, 0.0000000000000000000, 19.50000000000000000 ) ) ;
#168 = AXIS2_PLACEMENT_3D ( 'NONE', #129, #223, #6 ) ;
#169 = ORIENTED_EDGE ( 'NONE', *, *, #84, .F. ) ;
#170 = EDGE_LOOP ( 'NONE', ( #75, #289 ) ) ;
#171 = DIRECTION ( 'NONE',  ( 0.0000000000000000000, 0.0000000000000000000, 1.000000000000000000 ) ) ;
#172 = DIRECTION ( 'NONE',  ( 0.0000000000000000000, 0.0000000000000000000, 1.000000000000000000 ) ) ;
#173 = FACE_OUTER_BOUND ( 'NONE', #281, .T. ) ;
#174 = CYLINDRICAL_SURFACE ( 'NONE', #59, 7.500000000000000000 ) ;
#175 = EDGE_CURVE ( 'NONE', #101, #144, #193, .T. ) ;
#176 = DIRECTION ( 'NONE',  ( -0.0000000000000000000, -0.0000000000000000000, -1.000000000000000000 ) ) ;
#177 = CARTESIAN_POINT ( 'NONE',  ( -9.000000000000000000, 0.0000000000000000000, 20.00000000000000000 ) ) ;
#178 = AXIS2_PLACEMENT_3D ( 'NONE', #237, #302, #88 ) ;
#179 = CIRCLE ( 'NONE', #312, 9.000000000000000000 ) ;
#180 = DIRECTION ( 'NONE',  ( -0.0000000000000000000, -0.0000000000000000000, 1.000000000000000000 ) ) ;
#181 = LINE ( 'NONE', #48, #165 ) ;
#182 = LINE ( 'NONE', #278, #311 ) ;
#183 = EDGE_CURVE ( 'NONE', #144, #101, #130, .T. ) ;
#184 = PRODUCT_CONTEXT ( 'NONE', #31, 'mechanical' ) ;
#185 = AXIS2_PLACEMENT_3D ( 'NONE', #225, #8, #109 ) ;
#186 = ORIENTED_EDGE ( 'NONE', *, *, #72, .T. ) ;
#187 = ORIENTED_EDGE ( 'NONE', *, *, #146, .T. ) ;
#188 = EDGE_LOOP ( 'NONE', ( #21, #99, #66, #234 ) ) ;
#189 =( NAMED_UNIT ( * ) SI_UNIT ( $, .STERADIAN. ) SOLID_ANGLE_UNIT ( ) );
#190 = DIRECTION ( 'NONE',  ( 1.000000000000000000, 0.0000000000000000000, 0.0000000000000000000 ) ) ;
#191 = ORIENTED_EDGE ( 'NONE', *, *, #175, .F. ) ;
#192 = CONICAL_SURFACE ( 'NONE', #274, 9.000000000000000000, 0.7853981633974517207 ) ;
#193 = CIRCLE ( 'NONE', #264, 8.499999999999991118 ) ;
#194 = EDGE_LOOP ( 'NONE', ( #169, #191, #163, #258 ) ) ;
#195 = DIRECTION ( 'NONE',  ( -0.0000000000000000000, -0.0000000000000000000, -1.000000000000000000 ) ) ;
#196 = EDGE_LOOP ( 'NONE', ( #308, #256, #282, #94 ) ) ;
#197 = DIRECTION ( 'NONE',  ( 1.000000000000000000, 0.0000000000000000000, 0.0000000000000000000 ) ) ;
#198 = CARTESIAN_POINT ( 'NONE',  ( 8.500000000000000000, 1.040949779275250140E-15, 20.00000000000000000 ) ) ;
#199 = DIRECTION ( 'NONE',  ( -0.0000000000000000000, -0.0000000000000000000, -1.000000000000000000 ) ) ;
#200 = ADVANCED_FACE ( 'NONE', ( #57 ), #155, .T. ) ;
#201 = DIRECTION ( 'NONE',  ( -0.0000000000000000000, -0.0000000000000000000, -1.000000000000000000 ) ) ;
#202 = CARTESIAN_POINT ( 'NONE',  ( -7.500000000000000000, 0.0000000000000000000, 20.00000000000000000 ) ) ;
#203 = CARTESIAN_POINT ( 'NONE',  ( -9.000000000000000000, 0.0000000000000000000, 19.50000000000000000 ) ) ;
#204 = VECTOR ( 'NONE', #2, 1000.000000000000000 ) ;
#205 = DIRECTION ( 'NONE',  ( 1.000000000000000000, 0.0000000000000000000, 0.0000000000000000000 ) ) ;
#206 = CARTESIAN_POINT ( 'NONE',  ( 0.0000000000000000000, 0.0000000000000000000, 0.0000000000000000000 ) ) ;
#207 = EDGE_CURVE ( 'NONE', #122, #123, #224, .T. ) ;
#208 = VERTEX_POINT ( 'NONE', #202 ) ;
#209 = ORIENTED_EDGE ( 'NONE', *, *, #65, .T. ) ;
#210 = ORIENTED_EDGE ( 'NONE', *, *, #269, .T. ) ;
#211 = VERTEX_POINT ( 'NONE', #297 ) ;
#212 = EDGE_CURVE ( 'NONE', #238, #122, #85, .T. ) ;
#213 = SURFACE_STYLE_FILL_AREA ( #120 ) ;
#214 = ORIENTED_EDGE ( 'NONE', *, *, #146, .F. ) ;
#215 = CONICAL_SURFACE ( 'NONE', #299, 8.500000000000000000, 0.7853981633974466137 ) ;
#216 = FACE_OUTER_BOUND ( 'NONE', #40, .T. ) ;
#217 = AXIS2_PLACEMENT_3D ( 'NONE', #78, #171, #266 ) ;
#218 = CIRCLE ( 'NONE', #43, 7.500000000000000000 ) ;
#219 = EDGE_LOOP ( 'NONE', ( #265, #209, #140, #233 ) ) ;
#220 = CARTESIAN_POINT ( 'NONE',  ( 9.000000000000000000, 1.102182119232617714E-15, 19.50000000000000000 ) ) ;
#221 = CARTESIAN_POINT ( 'NONE',  ( 7.500000000000000000, 9.184850993605147944E-16, 20.00000000000000000 ) ) ;
#222 = CARTESIAN_POINT ( 'NONE',  ( -8.499999999999991118, 1.071565949253933532E-15, 0.0000000000000000000 ) ) ;
#223 = DIRECTION ( 'NONE',  ( -0.0000000000000000000, -0.0000000000000000000, -1.000000000000000000 ) ) ;
#224 = CIRCLE ( 'NONE', #185, 9.000000000000000000 ) ;
#225 = CARTESIAN_POINT ( 'NONE',  ( 0.0000000000000000000, 0.0000000000000000000, 0.5000000000000038858 ) ) ;
#226 = CARTESIAN_POINT ( 'NONE',  ( 0.0000000000000000000, 0.0000000000000000000, 20.00000000000000000 ) ) ;
#227 = SURFACE_STYLE_USAGE ( .BOTH. , #135 ) ;
#228 = DIRECTION ( 'NONE',  ( 1.000000000000000000, 0.0000000000000000000, -0.0000000000000000000 ) ) ;
#229 = CARTESIAN_POINT ( 'NONE',  ( 0.0000000000000000000, 0.0000000000000000000, 0.5000000000000038858 ) ) ;
#230 = ADVANCED_FACE ( 'NONE', ( #60 ), #74, .T. ) ;
#231 = ORIENTED_EDGE ( 'NONE', *, *, #13, .T. ) ;
#232 = CIRCLE ( 'NONE', #100, 7.500000000000000000 ) ;
#233 = ORIENTED_EDGE ( 'NONE', *, *, #72, .F. ) ;
#234 = ORIENTED_EDGE ( 'NONE', *, *, #288, .F. ) ;
#235 = ADVANCED_FACE ( 'NONE', ( #133 ), #290, .T. ) ;
#236 = SURFACE_SIDE_STYLE ('',( #213 ) ) ;
#237 = CARTESIAN_POINT ( 'NONE',  ( 0.0000000000000000000, 0.0000000000000000000, 20.00000000000000000 ) ) ;
#238 = VERTEX_POINT ( 'NONE', #203 ) ;
#239 = LINE ( 'NONE', #23, #300 ) ;
#240 = STYLED_ITEM ( 'NONE', ( #10 ), #131 ) ;
#241 = CARTESIAN_POINT ( 'NONE',  ( 9.000000000000000000, 1.102182119232617714E-15, 20.00000000000000000 ) ) ;
#242 = CIRCLE ( 'NONE', #69, 8.500000000000000000 ) ;
#243 = STYLED_ITEM ( 'NONE', ( #47 ), #15 ) ;
#244 = DIRECTION ( 'NONE',  ( 1.000000000000000000, 0.0000000000000000000, 0.0000000000000000000 ) ) ;
#245 = DIRECTION ( 'NONE',  ( 0.0000000000000000000, 0.0000000000000000000, 1.000000000000000000 ) ) ;
#246 = PRODUCT_DEFINITION ( 'UNKNOWN', '', #95, #272 ) ;
#247 = FACE_OUTER_BOUND ( 'NONE', #196, .T. ) ;
#248 = CARTESIAN_POINT ( 'NONE',  ( 0.0000000000000000000, 0.0000000000000000000, 20.00000000000000000 ) ) ;
#249 = CIRCLE ( 'NONE', #139, 7.500000000000000000 ) ;
#250 = DIRECTION ( 'NONE',  ( -0.0000000000000000000, -0.0000000000000000000, 1.000000000000000000 ) ) ;
#251 = FILL_AREA_STYLE ('',( #159 ) ) ;
#252 = PLANE ( 'NONE',  #17 ) ;
#253 =( NAMED_UNIT ( * ) SI_UNIT ( $, .STERADIAN. ) SOLID_ANGLE_UNIT ( ) );
#254 = CARTESIAN_POINT ( 'NONE',  ( 0.0000000000000000000, 0.0000000000000000000, 20.00000000000000000 ) ) ;
#255 = ADVANCED_FACE ( 'NONE', ( #298 ), #192, .T. ) ;
#256 = ORIENTED_EDGE ( 'NONE', *, *, #121, .T. ) ;
#257 = AXIS2_PLACEMENT_3D ( 'NONE', #229, #14, #114 ) ;
#258 = ORIENTED_EDGE ( 'NONE', *, *, #207, .F. ) ;
#259 = CIRCLE ( 'NONE', #217, 8.500000000000000000 ) ;
#260 = EDGE_LOOP ( 'NONE', ( #16, #92 ) ) ;
#261 =( LENGTH_UNIT ( ) NAMED_UNIT ( * ) SI_UNIT ( .MILLI., .METRE. ) );
#262 = CARTESIAN_POINT ( 'NONE',  ( 0.0000000000000000000, 0.0000000000000000000, 0.0000000000000000000 ) ) ;
#263 = ADVANCED_FACE ( 'NONE', ( #61, #160 ), #252, .F. ) ;
#264 = AXIS2_PLACEMENT_3D ( 'NONE', #108, #201, #296 ) ;
#265 = ORIENTED_EDGE ( 'NONE', *, *, #39, .F. ) ;
#266 = DIRECTION ( 'NONE',  ( 1.000000000000000000, 0.0000000000000000000, 0.0000000000000000000 ) ) ;
#267 = DIRECTION ( 'NONE',  ( 1.000000000000000000, 0.0000000000000000000, 0.0000000000000000000 ) ) ;
#268 = FACE_BOUND ( 'NONE', #260, .T. ) ;
#269 = EDGE_CURVE ( 'NONE', #208, #148, #232, .T. ) ;
#270 = CARTESIAN_POINT ( 'NONE',  ( 0.0000000000000000000, 0.0000000000000000000, 20.00000000000000000 ) ) ;
#271 = DIRECTION ( 'NONE',  ( 1.000000000000000000, 0.0000000000000000000, 0.0000000000000000000 ) ) ;
#272 = PRODUCT_DEFINITION_CONTEXT ( 'detailed design', #3, 'design' ) ;
#273 = DIRECTION ( 'NONE',  ( -0.0000000000000000000, -0.0000000000000000000, -1.000000000000000000 ) ) ;
#274 = AXIS2_PLACEMENT_3D ( 'NONE', #87, #180, #276 ) ;
#275 = VECTOR ( 'NONE', #199, 1000.000000000000000 ) ;
#276 = DIRECTION ( 'NONE',  ( 1.000000000000000000, 0.0000000000000000000, 0.0000000000000000000 ) ) ;
#277 =( NAMED_UNIT ( * ) PLANE_ANGLE_UNIT ( ) SI_UNIT ( $, .RADIAN. ) );
#278 = CARTESIAN_POINT ( 'NONE',  ( 9.000000000000000000, 0.0000000000000000000, 0.5000000000000038858 ) ) ;
#279 = APPLICATION_PROTOCOL_DEFINITION ( 'draft international standard', 'automotive_design', 1998, #3 ) ;
#280 = UNCERTAINTY_MEASURE_WITH_UNIT (LENGTH_MEASURE( 1.000000000000000082E-05 ), #90, 'distance_accuracy_value', 'NONE');
#281 = EDGE_LOOP ( 'NONE', ( #164, #71 ) ) ;
#282 = ORIENTED_EDGE ( 'NONE', *, *, #212, .T. ) ;
#283 = MECHANICAL_DESIGN_GEOMETRIC_PRESENTATION_REPRESENTATION (  '', ( #240 ), #54 ) ;
#284 = ORIENTED_EDGE ( 'NONE', *, *, #183, .T. ) ;
#285 =( GEOMETRIC_REPRESENTATION_CONTEXT ( 3 ) GLOBAL_UNCERTAINTY_ASSIGNED_CONTEXT ( ( #145 ) ) GLOBAL_UNIT_ASSIGNED_CONTEXT ( ( #261, #96, #189 ) ) REPRESENTATION_CONTEXT ( 'NONE', 'WORKASPACE' ) );
#286 = EDGE_CURVE ( 'NONE', #148, #208, #142, .T. ) ;
#287 = DIRECTION ( 'NONE',  ( 0.0000000000000000000, 0.0000000000000000000, -1.000000000000000000 ) ) ;
#288 = EDGE_CURVE ( 'NONE', #101, #123, #182, .T. ) ;
#289 = ORIENTED_EDGE ( 'NONE', *, *, #29, .T. ) ;
#290 = CONICAL_SURFACE ( 'NONE', #58, 8.500000000000000000, 0.7853981633974466137 ) ;
#291 = DIRECTION ( 'NONE',  ( -1.000000000000000000, 0.0000000000000000000, 0.0000000000000000000 ) ) ;
#292 = CARTESIAN_POINT ( 'NONE',  ( -9.000000000000000000, 0.0000000000000000000, 0.5000000000000038858 ) ) ;
#293 = DIRECTION ( 'NONE',  ( 0.7071067811865463515, 8.659560562354919300E-17, -0.7071067811865487940 ) ) ;
#294 = CARTESIAN_POINT ( 'NONE',  ( 7.500000000000000000, 9.184850993605147944E-16, 20.00000000000000000 ) ) ;
#295 = DIRECTION ( 'NONE',  ( -0.7071067811865463515, 0.0000000000000000000, -0.7071067811865487940 ) ) ;
#296 = DIRECTION ( 'NONE',  ( 1.000000000000000000, 0.0000000000000000000, 0.0000000000000000000 ) ) ;
#297 = CARTESIAN_POINT ( 'NONE',  ( 8.500000000000000000, 1.071565949253933927E-15, 20.00000000000000000 ) ) ;
#298 = FACE_OUTER_BOUND ( 'NONE', #194, .T. ) ;
#299 = AXIS2_PLACEMENT_3D ( 'NONE', #254, #37, #138 ) ;
#300 = VECTOR ( 'NONE', #124, 1000.000000000000114 ) ;
#301 =( LENGTH_UNIT ( ) NAMED_UNIT ( * ) SI_UNIT ( .MILLI., .METRE. ) );
#302 = DIRECTION ( 'NONE',  ( 0.0000000000000000000, 0.0000000000000000000, 1.000000000000000000 ) ) ;
#303 = DIRECTION ( 'NONE',  ( 0.0000000000000000000, 0.0000000000000000000, 1.000000000000000000 ) ) ;
#304 = ADVANCED_FACE ( 'NONE', ( #161 ), #215, .T. ) ;
#305 = AXIS2_PLACEMENT_3D ( 'NONE', #83, #176, #271 ) ;
#306 = ORIENTED_EDGE ( 'NONE', *, *, #46, .T. ) ;
#307 = EDGE_LOOP ( 'NONE', ( #18, #119, #186, #22 ) ) ;
#308 = ORIENTED_EDGE ( 'NONE', *, *, #106, .F. ) ;
#309 = EDGE_CURVE ( 'NONE', #123, #122, #41, .T. ) ;
#310 = CARTESIAN_POINT ( 'NONE',  ( 0.0000000000000000000, 0.0000000000000000000, 0.0000000000000000000 ) ) ;
#311 = VECTOR ( 'NONE', #62, 1000.000000000000114 ) ;
#312 = AXIS2_PLACEMENT_3D ( 'NONE', #1, #104, #197 ) ;
#313 = CYLINDRICAL_SURFACE ( 'NONE', #86, 7.500000000000000000 ) ;
#314 = EDGE_LOOP ( 'NONE', ( #19, #51, #187, #44 ) ) ;
ENDSEC;
END-ISO-10303-21;
