ISO-10303-21;
HEADER;
FILE_DESCRIPTION (( 'STEP AP214' ),
    '1' );
FILE_NAME ('Tube d30x1.5.STEP',
    '2019-10-20T13:05:59',
    ( 'Olivier' ),
    ( 'Microsoft' ),
    'SwSTEP 2.0',
    'SolidWorks 2010',
    '' );
FILE_SCHEMA (( 'AUTOMOTIVE_DESIGN' ));
ENDSEC;

DATA;
#1 = PRODUCT_DEFINITION_SHAPE ( 'NONE', 'NONE',  #158 ) ;
#2 = PRODUCT_DEFINITION_CONTEXT ( 'detailed design', #140, 'design' ) ;
#3 = CARTESIAN_POINT ( 'NONE',  ( 15.00000000000000000, 1.836970198721029600E-015, 0.0000000000000000000 ) ) ;
#4 = CARTESIAN_POINT ( 'NONE',  ( 13.50000000000000000, 1.653273178848926900E-015, 0.0000000000000000000 ) ) ;
#5 = VERTEX_POINT ( 'NONE', #6 ) ;
#6 = CARTESIAN_POINT ( 'NONE',  ( 13.49999999999999100, 0.0000000000000000000, 755.0000000000000000 ) ) ;
#7 = CARTESIAN_POINT ( 'NONE',  ( 14.99999999999998600, 0.0000000000000000000, 755.0000000000000000 ) ) ;
#8 = CARTESIAN_POINT ( 'NONE',  ( -13.50000000000000000, 0.0000000000000000000, 755.0000000000000000 ) ) ;
#9 = VERTEX_POINT ( 'NONE', #8 ) ;
#10 = VERTEX_POINT ( 'NONE', #4 ) ;
#11 = VERTEX_POINT ( 'NONE', #22 ) ;
#12 = VERTEX_POINT ( 'NONE', #7 ) ;
#13 = VERTEX_POINT ( 'NONE', #23 ) ;
#14 = VERTEX_POINT ( 'NONE', #3 ) ;
#15 = VERTEX_POINT ( 'NONE', #24 ) ;
#16 = VERTEX_POINT ( 'NONE', #25 ) ;
#17 = VERTEX_POINT ( 'NONE', #26 ) ;
#18 = VERTEX_POINT ( 'NONE', #27 ) ;
#19 = VERTEX_POINT ( 'NONE', #28 ) ;
#20 = VERTEX_POINT ( 'NONE', #29 ) ;
#21 = VERTEX_POINT ( 'NONE', #30 ) ;
#22 = CARTESIAN_POINT ( 'NONE',  ( -13.50000000000000000, 0.0000000000000000000, 0.0000000000000000000 ) ) ;
#23 = CARTESIAN_POINT ( 'NONE',  ( 15.00000000000000000, 0.0000000000000000000, 765.0000000000000000 ) ) ;
#24 = CARTESIAN_POINT ( 'NONE',  ( -15.00000000000000000, 0.0000000000000000000, 0.0000000000000000000 ) ) ;
#25 = CARTESIAN_POINT ( 'NONE',  ( -15.00000000000000000, 0.0000000000000000000, 755.0000000000000000 ) ) ;
#26 = CARTESIAN_POINT ( 'NONE',  ( -14.48888739433605400, 3.882285676537714700, 755.0000000000000000 ) ) ;
#27 = CARTESIAN_POINT ( 'NONE',  ( -14.48888739433605400, 3.882285676537714700, 765.0000000000000000 ) ) ;
#28 = CARTESIAN_POINT ( 'NONE',  ( -13.03999865490245100, 3.494057108883943800, 765.0000000000000000 ) ) ;
#29 = CARTESIAN_POINT ( 'NONE',  ( 13.50000000000000000, 0.0000000000000000000, 765.0000000000000000 ) ) ;
#30 = CARTESIAN_POINT ( 'NONE',  ( -13.03999865490245100, 3.494057108883943800, 755.0000000000000000 ) ) ;
#31 = FILL_AREA_STYLE_COLOUR ( '', #239 ) ;
#32 = FILL_AREA_STYLE ('',( #31 ) ) ;
#33 = SURFACE_SIDE_STYLE ('',( #283 ) ) ;
#34 = SURFACE_STYLE_USAGE ( .BOTH. , #33 ) ;
#35 =( LENGTH_UNIT ( ) NAMED_UNIT ( * ) SI_UNIT ( .MILLI., .METRE. ) );
#36 =( NAMED_UNIT ( * ) PLANE_ANGLE_UNIT ( ) SI_UNIT ( $, .RADIAN. ) );
#37 =( NAMED_UNIT ( * ) SI_UNIT ( $, .STERADIAN. ) SOLID_ANGLE_UNIT ( ) );
#38 = CARTESIAN_POINT ( 'NONE',  ( -16.39114512326500500, 0.0000000000000000000, 755.0000000000000000 ) ) ;
#39 = PLANE ( 'NONE',  #175 ) ;
#40 = CARTESIAN_POINT ( 'NONE',  ( 0.0000000000000000000, 0.0000000000000000000, 730.1924737072600900 ) ) ;
#41 = PLANE ( 'NONE',  #174 ) ;
#42 = PLANE ( 'NONE',  #176 ) ;
#43 = DIRECTION ( 'NONE',  ( 0.2588190451025142400, 0.9659258262890700900, 0.0000000000000000000 ) ) ;
#44 = DIRECTION ( 'NONE',  ( -0.9659258262890700900, 0.2588190451025142400, 0.0000000000000000000 ) ) ;
#45 = CARTESIAN_POINT ( 'NONE',  ( -16.39114512326500500, -765.0000000000000000, 755.0000000000000000 ) ) ;
#46 = CARTESIAN_POINT ( 'NONE',  ( 0.0000000000000000000, 0.0000000000000000000, 0.0000000000000000000 ) ) ;
#47 = DIRECTION ( 'NONE',  ( 0.0000000000000000000, -1.000000000000000000, 0.0000000000000000000 ) ) ;
#48 = DIRECTION ( 'NONE',  ( 0.0000000000000000000, -0.0000000000000000000, -1.000000000000000000 ) ) ;
#49 = DIRECTION ( 'NONE',  ( -0.0000000000000000000, -0.0000000000000000000, -1.000000000000000000 ) ) ;
#50 = DIRECTION ( 'NONE',  ( -1.000000000000000000, 0.0000000000000000000, 0.0000000000000000000 ) ) ;
#51 = DIRECTION ( 'NONE',  ( 0.0000000000000000000, 0.0000000000000000000, -1.000000000000000000 ) ) ;
#52 = DIRECTION ( 'NONE',  ( -1.000000000000000000, 0.0000000000000000000, -0.0000000000000000000 ) ) ;
#53 = DIRECTION ( 'NONE',  ( -0.0000000000000000000, -0.0000000000000000000, -1.000000000000000000 ) ) ;
#54 = PLANE ( 'NONE',  #202 ) ;
#55 = DIRECTION ( 'NONE',  ( 0.0000000000000000000, 0.0000000000000000000, 1.000000000000000000 ) ) ;
#56 = DIRECTION ( 'NONE',  ( 1.000000000000000000, 0.0000000000000000000, -0.0000000000000000000 ) ) ;
#57 = DIRECTION ( 'NONE',  ( -1.000000000000000000, 0.0000000000000000000, 0.0000000000000000000 ) ) ;
#58 = CARTESIAN_POINT ( 'NONE',  ( 0.0000000000000000000, 0.0000000000000000000, 765.0000000000000000 ) ) ;
#59 = DIRECTION ( 'NONE',  ( -1.000000000000000000, 0.0000000000000000000, 0.0000000000000000000 ) ) ;
#60 = DIRECTION ( 'NONE',  ( -0.0000000000000000000, -0.0000000000000000000, -1.000000000000000000 ) ) ;
#61 = CARTESIAN_POINT ( 'NONE',  ( 0.0000000000000000000, 0.0000000000000000000, 765.0000000000000000 ) ) ;
#62 = CARTESIAN_POINT ( 'NONE',  ( 0.0000000000000000000, 0.0000000000000000000, 765.0000000000000000 ) ) ;
#63 = PLANE ( 'NONE',  #171 ) ;
#64 = CARTESIAN_POINT ( 'NONE',  ( 13.50000000000000000, 1.653273178848926900E-015, 765.0000000000000000 ) ) ;
#65 = DIRECTION ( 'NONE',  ( 0.0000000000000000000, 0.0000000000000000000, 1.000000000000000000 ) ) ;
#66 = DIRECTION ( 'NONE',  ( 1.000000000000000000, 0.0000000000000000000, -0.0000000000000000000 ) ) ;
#67 = CARTESIAN_POINT ( 'NONE',  ( 0.0000000000000000000, 0.0000000000000000000, 765.0000000000000000 ) ) ;
#68 = CARTESIAN_POINT ( 'NONE',  ( 0.0000000000000000000, 0.0000000000000000000, 765.0000000000000000 ) ) ;
#69 = DIRECTION ( 'NONE',  ( -1.000000000000000000, 0.0000000000000000000, 0.0000000000000000000 ) ) ;
#70 = DIRECTION ( 'NONE',  ( -0.0000000000000000000, -0.0000000000000000000, -1.000000000000000000 ) ) ;
#71 = CARTESIAN_POINT ( 'NONE',  ( 0.0000000000000000000, 0.0000000000000000000, 765.0000000000000000 ) ) ;
#72 = DIRECTION ( 'NONE',  ( 0.0000000000000000000, 0.0000000000000000000, 1.000000000000000000 ) ) ;
#73 = DIRECTION ( 'NONE',  ( 1.000000000000000000, 0.0000000000000000000, 0.0000000000000000000 ) ) ;
#74 = CARTESIAN_POINT ( 'NONE',  ( 0.0000000000000000000, 0.0000000000000000000, 755.0000000000000000 ) ) ;
#75 = DIRECTION ( 'NONE',  ( 0.0000000000000000000, 0.0000000000000000000, -1.000000000000000000 ) ) ;
#76 = DIRECTION ( 'NONE',  ( -1.000000000000000000, 0.0000000000000000000, 0.0000000000000000000 ) ) ;
#77 = CARTESIAN_POINT ( 'NONE',  ( 0.0000000000000000000, 0.0000000000000000000, 0.0000000000000000000 ) ) ;
#78 = DIRECTION ( 'NONE',  ( 0.0000000000000000000, 0.0000000000000000000, 1.000000000000000000 ) ) ;
#79 = DIRECTION ( 'NONE',  ( 1.000000000000000000, 0.0000000000000000000, 0.0000000000000000000 ) ) ;
#80 = CARTESIAN_POINT ( 'NONE',  ( -14.48888739433604800, 3.882285676537713400, 765.0000000000000000 ) ) ;
#81 = CARTESIAN_POINT ( 'NONE',  ( -16.39114512326500500, 0.0000000000000000000, 755.0000000000000000 ) ) ;
#82 = DIRECTION ( 'NONE',  ( -0.0000000000000000000, -0.0000000000000000000, -1.000000000000000000 ) ) ;
#83 = CARTESIAN_POINT ( 'NONE',  ( 0.0000000000000000000, 0.0000000000000000000, 765.0000000000000000 ) ) ;
#84 = DIRECTION ( 'NONE',  ( 0.0000000000000000000, 0.0000000000000000000, 1.000000000000000000 ) ) ;
#85 = DIRECTION ( 'NONE',  ( 0.0000000000000000000, 0.0000000000000000000, 1.000000000000000000 ) ) ;
#86 = DIRECTION ( 'NONE',  ( 1.000000000000000000, 0.0000000000000000000, 0.0000000000000000000 ) ) ;
#87 = CARTESIAN_POINT ( 'NONE',  ( 0.0000000000000000000, 0.0000000000000000000, 765.0000000000000000 ) ) ;
#88 = DIRECTION ( 'NONE',  ( -1.000000000000000000, -0.0000000000000000000, -0.0000000000000000000 ) ) ;
#89 = CARTESIAN_POINT ( 'NONE',  ( -15.00000000000000000, 0.0000000000000000000, 765.0000000000000000 ) ) ;
#90 = DIRECTION ( 'NONE',  ( -0.9659258262890700900, 0.2588190451025142400, 0.0000000000000000000 ) ) ;
#91 = CARTESIAN_POINT ( 'NONE',  ( 15.00000000000000000, 0.0000000000000000000, 765.0000000000000000 ) ) ;
#92 = DIRECTION ( 'NONE',  ( -0.0000000000000000000, -0.0000000000000000000, -1.000000000000000000 ) ) ;
#93 = CARTESIAN_POINT ( 'NONE',  ( -13.50000000000000000, 0.0000000000000000000, 765.0000000000000000 ) ) ;
#94 = CARTESIAN_POINT ( 'NONE',  ( 0.0000000000000000000, 0.0000000000000000000, 755.0000000000000000 ) ) ;
#95 = DIRECTION ( 'NONE',  ( 0.0000000000000000000, 0.0000000000000000000, 1.000000000000000000 ) ) ;
#96 = CARTESIAN_POINT ( 'NONE',  ( 0.0000000000000000000, 0.0000000000000000000, 755.0000000000000000 ) ) ;
#97 = DIRECTION ( 'NONE',  ( -0.0000000000000000000, -0.0000000000000000000, -1.000000000000000000 ) ) ;
#98 = CARTESIAN_POINT ( 'NONE',  ( 0.0000000000000000000, 0.0000000000000000000, 755.0000000000000000 ) ) ;
#99 = DIRECTION ( 'NONE',  ( 0.0000000000000000000, 0.0000000000000000000, -1.000000000000000000 ) ) ;
#100 = DIRECTION ( 'NONE',  ( -1.000000000000000000, 0.0000000000000000000, 0.0000000000000000000 ) ) ;
#101 = CARTESIAN_POINT ( 'NONE',  ( 0.0000000000000000000, 0.0000000000000000000, 0.0000000000000000000 ) ) ;
#102 = DIRECTION ( 'NONE',  ( 0.0000000000000000000, 0.0000000000000000000, -1.000000000000000000 ) ) ;
#103 = DIRECTION ( 'NONE',  ( -1.000000000000000000, 0.0000000000000000000, 0.0000000000000000000 ) ) ;
#104 = CARTESIAN_POINT ( 'NONE',  ( 0.0000000000000000000, 0.0000000000000000000, 755.0000000000000000 ) ) ;
#105 = DIRECTION ( 'NONE',  ( -0.9659258262890700900, 0.2588190451025142400, 0.0000000000000000000 ) ) ;
#106 = CARTESIAN_POINT ( 'NONE',  ( 15.00000000000000000, 1.836970198721029600E-015, 765.0000000000000000 ) ) ;
#107 = DIRECTION ( 'NONE',  ( -0.0000000000000000000, -0.0000000000000000000, -1.000000000000000000 ) ) ;
#108 = CARTESIAN_POINT ( 'NONE',  ( 0.0000000000000000000, 0.0000000000000000000, 0.0000000000000000000 ) ) ;
#109 = DIRECTION ( 'NONE',  ( 0.0000000000000000000, 0.0000000000000000000, -1.000000000000000000 ) ) ;
#110 = DIRECTION ( 'NONE',  ( -1.000000000000000000, 0.0000000000000000000, 0.0000000000000000000 ) ) ;
#111 = CARTESIAN_POINT ( 'NONE',  ( 0.0000000000000000000, 0.0000000000000000000, 0.0000000000000000000 ) ) ;
#112 = DIRECTION ( 'NONE',  ( 0.0000000000000000000, 0.0000000000000000000, 1.000000000000000000 ) ) ;
#113 = DIRECTION ( 'NONE',  ( 1.000000000000000000, 0.0000000000000000000, 0.0000000000000000000 ) ) ;
#114 = CARTESIAN_POINT ( 'NONE',  ( 0.0000000000000000000, 0.0000000000000000000, 765.0000000000000000 ) ) ;
#115 = DIRECTION ( 'NONE',  ( 1.000000000000000000, 0.0000000000000000000, 0.0000000000000000000 ) ) ;
#116 = CARTESIAN_POINT ( 'NONE',  ( 13.50000000000000000, 0.0000000000000000000, 765.0000000000000000 ) ) ;
#117 = DIRECTION ( 'NONE',  ( 0.0000000000000000000, 0.0000000000000000000, 1.000000000000000000 ) ) ;
#118 = DIRECTION ( 'NONE',  ( 0.0000000000000000000, 0.0000000000000000000, 1.000000000000000000 ) ) ;
#119 = DIRECTION ( 'NONE',  ( 1.000000000000000000, 0.0000000000000000000, 0.0000000000000000000 ) ) ;
#120 = FILL_AREA_STYLE ('',( #128 ) ) ;
#121 = DIRECTION ( 'NONE',  ( 0.0000000000000000000, 0.0000000000000000000, 1.000000000000000000 ) ) ;
#122 = DIRECTION ( 'NONE',  ( 1.000000000000000000, 0.0000000000000000000, 0.0000000000000000000 ) ) ;
#123 = CARTESIAN_POINT ( 'NONE',  ( -13.03999865490244600, 3.494057108883942500, 765.0000000000000000 ) ) ;
#124 = DIRECTION ( 'NONE',  ( 0.0000000000000000000, 0.0000000000000000000, 1.000000000000000000 ) ) ;
#125 =( LENGTH_UNIT ( ) NAMED_UNIT ( * ) SI_UNIT ( .MILLI., .METRE. ) );
#126 =( NAMED_UNIT ( * ) PLANE_ANGLE_UNIT ( ) SI_UNIT ( $, .RADIAN. ) );
#127 =( NAMED_UNIT ( * ) SI_UNIT ( $, .STERADIAN. ) SOLID_ANGLE_UNIT ( ) );
#128 = FILL_AREA_STYLE_COLOUR ( '', #316 ) ;
#129 = SURFACE_SIDE_STYLE ('',( #308 ) ) ;
#130 = SURFACE_STYLE_USAGE ( .BOTH. , #129 ) ;
#131 =( LENGTH_UNIT ( ) NAMED_UNIT ( * ) SI_UNIT ( .MILLI., .METRE. ) );
#132 =( NAMED_UNIT ( * ) PLANE_ANGLE_UNIT ( ) SI_UNIT ( $, .RADIAN. ) );
#133 =( NAMED_UNIT ( * ) SI_UNIT ( $, .STERADIAN. ) SOLID_ANGLE_UNIT ( ) );
#134 = CARTESIAN_POINT ( 'NONE',  ( 0.0000000000000000000, 0.0000000000000000000, 0.0000000000000000000 ) ) ;
#135 = DIRECTION ( 'NONE',  ( 0.0000000000000000000, 0.0000000000000000000, 1.000000000000000000 ) ) ;
#136 = DIRECTION ( 'NONE',  ( 1.000000000000000000, 0.0000000000000000000, 0.0000000000000000000 ) ) ;
#137 = APPLICATION_CONTEXT ( 'automotive_design' ) ;
#138 = APPLICATION_PROTOCOL_DEFINITION ( 'draft international standard', 'automotive_design', 1998, #137 ) ;
#139 = PRODUCT_CONTEXT ( 'NONE', #137, 'mechanical' ) ;
#140 = APPLICATION_CONTEXT ( 'automotive_design' ) ;
#141 = APPLICATION_PROTOCOL_DEFINITION ( 'draft international standard', 'automotive_design', 1998, #140 ) ;
#142 = UNCERTAINTY_MEASURE_WITH_UNIT (LENGTH_MEASURE( 1.000000000000000100E-005 ), #125, 'distance_accuracy_value', 'NONE');
#143 = MANIFOLD_SOLID_BREP ( 'Enlèv. mat.-Extru.2', #238 ) ;
#144 = ADVANCED_BREP_SHAPE_REPRESENTATION ( 'Tube d30x1.5', ( #143, #159 ), #315 ) ;
#145 = UNCERTAINTY_MEASURE_WITH_UNIT (LENGTH_MEASURE( 1.000000000000000100E-005 ), #131, 'distance_accuracy_value', 'NONE');
#146 = UNCERTAINTY_MEASURE_WITH_UNIT (LENGTH_MEASURE( 1.000000000000000100E-005 ), #35, 'distance_accuracy_value', 'NONE');
#147 = ADVANCED_FACE ( 'NONE', ( #233 ), #41, .F. ) ;
#148 = ADVANCED_FACE ( 'NONE', ( #232 ), #39, .T. ) ;
#149 = ADVANCED_FACE ( 'NONE', ( #229 ), #42, .F. ) ;
#150 = ADVANCED_FACE ( 'NONE', ( #230, #234 ), #54, .F. ) ;
#151 = ADVANCED_FACE ( 'NONE', ( #226 ), #225, .F. ) ;
#152 = ADVANCED_FACE ( 'NONE', ( #231 ), #228, .T. ) ;
#153 = ADVANCED_FACE ( 'NONE', ( #224 ), #63, .T. ) ;
#154 = ADVANCED_FACE ( 'NONE', ( #227 ), #221, .T. ) ;
#155 = ADVANCED_FACE ( 'NONE', ( #222 ), #223, .F. ) ;
#156 = PRODUCT_RELATED_PRODUCT_CATEGORY ( 'part', '', ( #205 ) ) ;
#157 = PRODUCT_DEFINITION_FORMATION_WITH_SPECIFIED_SOURCE ( 'ANY', '', #205, .NOT_KNOWN. ) ;
#158 = PRODUCT_DEFINITION ( 'UNKNOWN', '', #157, #2 ) ;
#159 = AXIS2_PLACEMENT_3D ( 'NONE', #134, #135, #136 ) ;
#160 = MECHANICAL_DESIGN_GEOMETRIC_PRESENTATION_REPRESENTATION (  '', ( #318 ), #319 ) ;
#161 = EDGE_CURVE ( 'NONE', #20, #19, #209, .T. ) ;
#162 = AXIS2_PLACEMENT_3D ( 'NONE', #111, #121, #122 ) ;
#163 = AXIS2_PLACEMENT_3D ( 'NONE', #108, #118, #119 ) ;
#164 = AXIS2_PLACEMENT_3D ( 'NONE', #101, #112, #113 ) ;
#165 = AXIS2_PLACEMENT_3D ( 'NONE', #98, #109, #110 ) ;
#166 = PRESENTATION_LAYER_ASSIGNMENT (  '', '', ( #318 ) ) ;
#167 = AXIS2_PLACEMENT_3D ( 'NONE', #96, #99, #100 ) ;
#168 = AXIS2_PLACEMENT_3D ( 'NONE', #94, #102, #103 ) ;
#169 = AXIS2_PLACEMENT_3D ( 'NONE', #71, #70, #69 ) ;
#170 = AXIS2_PLACEMENT_3D ( 'NONE', #68, #53, #57 ) ;
#171 = AXIS2_PLACEMENT_3D ( 'NONE', #62, #65, #66 ) ;
#172 = AXIS2_PLACEMENT_3D ( 'NONE', #61, #60, #59 ) ;
#173 = AXIS2_PLACEMENT_3D ( 'NONE', #58, #49, #50 ) ;
#174 = AXIS2_PLACEMENT_3D ( 'NONE', #40, #43, #44 ) ;
#175 = AXIS2_PLACEMENT_3D ( 'NONE', #38, #47, #48 ) ;
#176 = AXIS2_PLACEMENT_3D ( 'NONE', #45, #51, #52 ) ;
#177 = PRESENTATION_LAYER_ASSIGNMENT (  '', '', ( #236 ) ) ;
#178 = AXIS2_PLACEMENT_3D ( 'NONE', #74, #75, #76 ) ;
#179 = AXIS2_PLACEMENT_3D ( 'NONE', #67, #72, #73 ) ;
#180 = EDGE_CURVE ( 'NONE', #16, #17, #214, .T. ) ;
#181 = EDGE_CURVE ( 'NONE', #11, #10, #287, .T. ) ;
#182 = EDGE_CURVE ( 'NONE', #5, #10, #210, .T. ) ;
#183 = EDGE_CURVE ( 'NONE', #17, #18, #219, .T. ) ;
#184 = EDGE_CURVE ( 'NONE', #13, #18, #292, .T. ) ;
#185 = EDGE_CURVE ( 'NONE', #12, #5, #291, .T. ) ;
#186 = EDGE_CURVE ( 'NONE', #19, #18, #289, .T. ) ;
#187 = EDGE_CURVE ( 'NONE', #16, #15, #290, .T. ) ;
#188 = EDGE_CURVE ( 'NONE', #12, #13, #217, .T. ) ;
#189 = EDGE_CURVE ( 'NONE', #9, #11, #294, .T. ) ;
#190 = EDGE_CURVE ( 'NONE', #9, #21, #301, .T. ) ;
#191 = EDGE_CURVE ( 'NONE', #12, #16, #303, .T. ) ;
#192 = EDGE_CURVE ( 'NONE', #21, #17, #299, .T. ) ;
#193 = EDGE_CURVE ( 'NONE', #12, #14, #304, .T. ) ;
#194 = EDGE_CURVE ( 'NONE', #5, #9, #307, .T. ) ;
#195 = EDGE_CURVE ( 'NONE', #14, #15, #309, .T. ) ;
#196 = EDGE_CURVE ( 'NONE', #20, #13, #296, .T. ) ;
#197 = EDGE_CURVE ( 'NONE', #5, #20, #310, .T. ) ;
#198 = EDGE_CURVE ( 'NONE', #10, #11, #313, .T. ) ;
#199 = EDGE_CURVE ( 'NONE', #15, #14, #314, .T. ) ;
#200 = EDGE_CURVE ( 'NONE', #21, #19, #302, .T. ) ;
#201 = MECHANICAL_DESIGN_GEOMETRIC_PRESENTATION_REPRESENTATION (  '', ( #236 ), #235 ) ;
#202 = AXIS2_PLACEMENT_3D ( 'NONE', #46, #55, #56 ) ;
#203 = AXIS2_PLACEMENT_3D ( 'NONE', #83, #85, #86 ) ;
#204 = AXIS2_PLACEMENT_3D ( 'NONE', #77, #78, #79 ) ;
#205 = PRODUCT ( 'Tube d30x1.5', 'Tube d30x1.5', '', ( #139 ) ) ;
#206 = ORIENTED_EDGE ( 'NONE', *, *, #198, .T. ) ;
#207 = ORIENTED_EDGE ( 'NONE', *, *, #190, .T. ) ;
#208 = ORIENTED_EDGE ( 'NONE', *, *, #185, .T. ) ;
#209 = CIRCLE ( 'NONE', #179, 13.50000000000000000 ) ;
#210 = LINE ( 'NONE', #64, #220 ) ;
#211 = ORIENTED_EDGE ( 'NONE', *, *, #197, .T. ) ;
#212 = ORIENTED_EDGE ( 'NONE', *, *, #190, .F. ) ;
#213 = ORIENTED_EDGE ( 'NONE', *, *, #199, .T. ) ;
#214 = CIRCLE ( 'NONE', #178, 15.00000000000000000 ) ;
#215 = ORIENTED_EDGE ( 'NONE', *, *, #182, .F. ) ;
#216 = ORIENTED_EDGE ( 'NONE', *, *, #198, .F. ) ;
#217 = LINE ( 'NONE', #91, #297 ) ;
#218 = VECTOR ( 'NONE', #88, 1000.000000000000000 ) ;
#219 = LINE ( 'NONE', #80, #288 ) ;
#220 = VECTOR ( 'NONE', #82, 1000.000000000000000 ) ;
#221 = CYLINDRICAL_SURFACE ( 'NONE', #170, 15.00000000000000000 ) ;
#222 = FACE_OUTER_BOUND ( 'NONE', #284, .T. ) ;
#223 = CYLINDRICAL_SURFACE ( 'NONE', #169, 13.50000000000000000 ) ;
#224 = FACE_OUTER_BOUND ( 'NONE', #286, .T. ) ;
#225 = CYLINDRICAL_SURFACE ( 'NONE', #173, 13.50000000000000000 ) ;
#226 = FACE_OUTER_BOUND ( 'NONE', #281, .T. ) ;
#227 = FACE_OUTER_BOUND ( 'NONE', #263, .T. ) ;
#228 = CYLINDRICAL_SURFACE ( 'NONE', #172, 15.00000000000000000 ) ;
#229 = FACE_OUTER_BOUND ( 'NONE', #285, .T. ) ;
#230 = FACE_OUTER_BOUND ( 'NONE', #279, .T. ) ;
#231 = FACE_OUTER_BOUND ( 'NONE', #266, .T. ) ;
#232 = FACE_OUTER_BOUND ( 'NONE', #278, .T. ) ;
#233 = FACE_OUTER_BOUND ( 'NONE', #282, .T. ) ;
#234 = FACE_BOUND ( 'NONE', #271, .T. ) ;
#235 =( GEOMETRIC_REPRESENTATION_CONTEXT ( 3 ) GLOBAL_UNCERTAINTY_ASSIGNED_CONTEXT ( ( #146 ) ) GLOBAL_UNIT_ASSIGNED_CONTEXT ( ( #35, #36, #37 ) ) REPRESENTATION_CONTEXT ( 'NONE', 'WORKASPACE' ) );
#236 = STYLED_ITEM ( 'NONE', ( #237 ), #143 ) ;
#237 = PRESENTATION_STYLE_ASSIGNMENT (( #34 ) ) ;
#238 = CLOSED_SHELL ( 'NONE', ( #155, #154, #153, #152, #151, #150, #149, #148, #147 ) ) ;
#239 = COLOUR_RGB ( '',0.7921568627450980000, 0.8196078431372548800, 0.9333333333333333500 ) ;
#240 = ORIENTED_EDGE ( 'NONE', *, *, #197, .F. ) ;
#241 = ORIENTED_EDGE ( 'NONE', *, *, #185, .F. ) ;
#242 = ORIENTED_EDGE ( 'NONE', *, *, #192, .F. ) ;
#243 = ORIENTED_EDGE ( 'NONE', *, *, #200, .T. ) ;
#244 = ORIENTED_EDGE ( 'NONE', *, *, #186, .T. ) ;
#245 = ORIENTED_EDGE ( 'NONE', *, *, #183, .F. ) ;
#246 = ORIENTED_EDGE ( 'NONE', *, *, #188, .F. ) ;
#247 = ORIENTED_EDGE ( 'NONE', *, *, #182, .T. ) ;
#248 = ORIENTED_EDGE ( 'NONE', *, *, #189, .F. ) ;
#249 = ORIENTED_EDGE ( 'NONE', *, *, #181, .F. ) ;
#250 = ORIENTED_EDGE ( 'NONE', *, *, #194, .F. ) ;
#251 = ORIENTED_EDGE ( 'NONE', *, *, #193, .T. ) ;
#252 = ORIENTED_EDGE ( 'NONE', *, *, #195, .T. ) ;
#253 = ORIENTED_EDGE ( 'NONE', *, *, #187, .F. ) ;
#254 = ORIENTED_EDGE ( 'NONE', *, *, #180, .T. ) ;
#255 = ORIENTED_EDGE ( 'NONE', *, *, #183, .T. ) ;
#256 = ORIENTED_EDGE ( 'NONE', *, *, #184, .F. ) ;
#257 = ORIENTED_EDGE ( 'NONE', *, *, #186, .F. ) ;
#258 = ORIENTED_EDGE ( 'NONE', *, *, #161, .F. ) ;
#259 = ORIENTED_EDGE ( 'NONE', *, *, #196, .T. ) ;
#260 = ORIENTED_EDGE ( 'NONE', *, *, #184, .T. ) ;
#261 = ORIENTED_EDGE ( 'NONE', *, *, #193, .F. ) ;
#262 = ORIENTED_EDGE ( 'NONE', *, *, #191, .T. ) ;
#263 = EDGE_LOOP ( 'NONE', ( #246, #251, #252, #253, #254, #255, #256 ) ) ;
#264 = ORIENTED_EDGE ( 'NONE', *, *, #200, .F. ) ;
#265 = ORIENTED_EDGE ( 'NONE', *, *, #194, .T. ) ;
#266 = EDGE_LOOP ( 'NONE', ( #261, #262, #274, #213 ) ) ;
#267 = ORIENTED_EDGE ( 'NONE', *, *, #181, .T. ) ;
#268 = ORIENTED_EDGE ( 'NONE', *, *, #161, .T. ) ;
#269 = ORIENTED_EDGE ( 'NONE', *, *, #196, .F. ) ;
#270 = ORIENTED_EDGE ( 'NONE', *, *, #188, .T. ) ;
#271 = EDGE_LOOP ( 'NONE', ( #267, #206 ) ) ;
#272 = ORIENTED_EDGE ( 'NONE', *, *, #191, .F. ) ;
#273 = ORIENTED_EDGE ( 'NONE', *, *, #180, .F. ) ;
#274 = ORIENTED_EDGE ( 'NONE', *, *, #187, .T. ) ;
#275 = ORIENTED_EDGE ( 'NONE', *, *, #189, .T. ) ;
#276 = ORIENTED_EDGE ( 'NONE', *, *, #199, .F. ) ;
#277 = ORIENTED_EDGE ( 'NONE', *, *, #192, .T. ) ;
#278 = EDGE_LOOP ( 'NONE', ( #270, #269, #240, #241 ) ) ;
#279 = EDGE_LOOP ( 'NONE', ( #276, #280 ) ) ;
#280 = ORIENTED_EDGE ( 'NONE', *, *, #195, .F. ) ;
#281 = EDGE_LOOP ( 'NONE', ( #215, #211, #268, #264, #212, #275, #216 ) ) ;
#282 = EDGE_LOOP ( 'NONE', ( #242, #243, #244, #245 ) ) ;
#283 = SURFACE_STYLE_FILL_AREA ( #32 ) ;
#284 = EDGE_LOOP ( 'NONE', ( #250, #247, #249, #248 ) ) ;
#285 = EDGE_LOOP ( 'NONE', ( #208, #265, #207, #277, #273, #272 ) ) ;
#286 = EDGE_LOOP ( 'NONE', ( #257, #258, #259, #260 ) ) ;
#287 = CIRCLE ( 'NONE', #204, 13.50000000000000000 ) ;
#288 = VECTOR ( 'NONE', #84, 1000.000000000000000 ) ;
#289 = LINE ( 'NONE', #87, #293 ) ;
#290 = LINE ( 'NONE', #89, #295 ) ;
#291 = LINE ( 'NONE', #81, #218 ) ;
#292 = CIRCLE ( 'NONE', #203, 15.00000000000000000 ) ;
#293 = VECTOR ( 'NONE', #90, 999.9999999999998900 ) ;
#294 = LINE ( 'NONE', #93, #298 ) ;
#295 = VECTOR ( 'NONE', #92, 1000.000000000000000 ) ;
#296 = LINE ( 'NONE', #114, #306 ) ;
#297 = VECTOR ( 'NONE', #95, 1000.000000000000000 ) ;
#298 = VECTOR ( 'NONE', #97, 1000.000000000000000 ) ;
#299 = LINE ( 'NONE', #104, #300 ) ;
#300 = VECTOR ( 'NONE', #105, 999.9999999999998900 ) ;
#301 = CIRCLE ( 'NONE', #167, 13.50000000000000000 ) ;
#302 = LINE ( 'NONE', #123, #312 ) ;
#303 = CIRCLE ( 'NONE', #168, 15.00000000000000000 ) ;
#304 = LINE ( 'NONE', #106, #305 ) ;
#305 = VECTOR ( 'NONE', #107, 1000.000000000000000 ) ;
#306 = VECTOR ( 'NONE', #115, 1000.000000000000000 ) ;
#307 = CIRCLE ( 'NONE', #165, 13.50000000000000000 ) ;
#308 = SURFACE_STYLE_FILL_AREA ( #120 ) ;
#309 = CIRCLE ( 'NONE', #164, 15.00000000000000000 ) ;
#310 = LINE ( 'NONE', #116, #311 ) ;
#311 = VECTOR ( 'NONE', #117, 1000.000000000000000 ) ;
#312 = VECTOR ( 'NONE', #124, 1000.000000000000000 ) ;
#313 = CIRCLE ( 'NONE', #163, 13.50000000000000000 ) ;
#314 = CIRCLE ( 'NONE', #162, 15.00000000000000000 ) ;
#315 =( GEOMETRIC_REPRESENTATION_CONTEXT ( 3 ) GLOBAL_UNCERTAINTY_ASSIGNED_CONTEXT ( ( #142 ) ) GLOBAL_UNIT_ASSIGNED_CONTEXT ( ( #125, #126, #127 ) ) REPRESENTATION_CONTEXT ( 'NONE', 'WORKASPACE' ) );
#316 = COLOUR_RGB ( '',0.7921568627450980000, 0.8196078431372548800, 0.9333333333333333500 ) ;
#317 = PRESENTATION_STYLE_ASSIGNMENT (( #130 ) ) ;
#318 = STYLED_ITEM ( 'NONE', ( #317 ), #144 ) ;
#319 =( GEOMETRIC_REPRESENTATION_CONTEXT ( 3 ) GLOBAL_UNCERTAINTY_ASSIGNED_CONTEXT ( ( #145 ) ) GLOBAL_UNIT_ASSIGNED_CONTEXT ( ( #131, #132, #133 ) ) REPRESENTATION_CONTEXT ( 'NONE', 'WORKASPACE' ) );
#320 = SHAPE_DEFINITION_REPRESENTATION ( #1, #144 ) ;
ENDSEC;
END-ISO-10303-21;
