ISO-10303-21;
HEADER;
FILE_DESCRIPTION (( 'STEP AP214' ),
    '1' );
FILE_NAME ('DE-24-12-18-04-piquage pression.STEP',
    '2019-06-06T15:11:18',
    ( '' ),
    ( '' ),
    'SwSTEP 2.0',
    'SolidWorks 2019',
    '' );
FILE_SCHEMA (( 'AUTOMOTIVE_DESIGN' ));
ENDSEC;

DATA;
#1 = DIRECTION ( 'NONE',  ( -0.0000000000000000000, -1.000000000000000000, -0.0000000000000000000 ) ) ;
#2 = SURFACE_STYLE_FILL_AREA ( #201 ) ;
#3 = ORIENTED_EDGE ( 'NONE', *, *, #22, .T. ) ;
#4 = CIRCLE ( 'NONE', #20, 1.500000000000000000 ) ;
#5 = PLANE ( 'NONE',  #38 ) ;
#6 = AXIS2_PLACEMENT_3D ( 'NONE', #58, #146, #240 ) ;
#7 = CARTESIAN_POINT ( 'NONE',  ( 3.061616997868383141E-16, 6.123233995736766036E-17, 2.500000000000000000 ) ) ;
#8 = CIRCLE ( 'NONE', #10, 2.500000000000000444 ) ;
#9 = SURFACE_STYLE_FILL_AREA ( #208 ) ;
#10 = AXIS2_PLACEMENT_3D ( 'NONE', #85, #189, #265 ) ;
#11 = LINE ( 'NONE', #100, #95 ) ;
#12 = LINE ( 'NONE', #102, #150 ) ;
#13 = DIRECTION ( 'NONE',  ( 0.0000000000000000000, 0.0000000000000000000, -1.000000000000000000 ) ) ;
#14 = ORIENTED_EDGE ( 'NONE', *, *, #104, .F. ) ;
#15 = CARTESIAN_POINT ( 'NONE',  ( 0.0000000000000000000, 5.000000000000000000, -1.000000000000000000 ) ) ;
#16 = VECTOR ( 'NONE', #128, 1000.000000000000000 ) ;
#17 = EDGE_CURVE ( 'NONE', #111, #171, #292, .T. ) ;
#18 = DIRECTION ( 'NONE',  ( -0.0000000000000000000, -1.000000000000000000, -0.0000000000000000000 ) ) ;
#19 = ORIENTED_EDGE ( 'NONE', *, *, #186, .F. ) ;
#20 = AXIS2_PLACEMENT_3D ( 'NONE', #26, #118, #205 ) ;
#21 = FACE_BOUND ( 'NONE', #68, .T. ) ;
#22 = EDGE_CURVE ( 'NONE', #30, #219, #8, .T. ) ;
#23 = EDGE_CURVE ( 'NONE', #272, #153, #64, .T. ) ;
#24 = DIRECTION ( 'NONE',  ( 0.0000000000000000000, 0.0000000000000000000, -1.000000000000000000 ) ) ;
#25 = CIRCLE ( 'NONE', #39, 1.500000000000000000 ) ;
#26 = CARTESIAN_POINT ( 'NONE',  ( 0.0000000000000000000, -2.685873093584515553E-16, 0.0000000000000000000 ) ) ;
#27 = LINE ( 'NONE', #120, #69 ) ;
#28 = EDGE_CURVE ( 'NONE', #218, #37, #217, .T. ) ;
#29 = DIRECTION ( 'NONE',  ( -0.0000000000000000000, -1.000000000000000000, -0.0000000000000000000 ) ) ;
#30 = VERTEX_POINT ( 'NONE', #245 ) ;
#31 = SHAPE_DEFINITION_REPRESENTATION ( #156, #281 ) ;
#32 = CYLINDRICAL_SURFACE ( 'NONE', #222, 1.000000000000000666 ) ;
#33 = DIRECTION ( 'NONE',  ( -0.0000000000000000000, -1.000000000000000000, -0.0000000000000000000 ) ) ;
#34 = CARTESIAN_POINT ( 'NONE',  ( 0.0000000000000000000, 6.123233995736766036E-17, 0.0000000000000000000 ) ) ;
#35 = UNCERTAINTY_MEASURE_WITH_UNIT (LENGTH_MEASURE( 1.000000000000000082E-05 ), #215, 'distance_accuracy_value', 'NONE');
#36 = EDGE_CURVE ( 'NONE', #171, #111, #43, .T. ) ;
#37 = VERTEX_POINT ( 'NONE', #199 ) ;
#38 = AXIS2_PLACEMENT_3D ( 'NONE', #96, #178, #282 ) ;
#39 = AXIS2_PLACEMENT_3D ( 'NONE', #98, #180, #283 ) ;
#40 = ADVANCED_FACE ( 'NONE', ( #107 ), #187, .T. ) ;
#41 = ORIENTED_EDGE ( 'NONE', *, *, #57, .F. ) ;
#42 = VECTOR ( 'NONE', #200, 1000.000000000000000 ) ;
#43 = CIRCLE ( 'NONE', #52, 2.500000000000000000 ) ;
#44 = ORIENTED_EDGE ( 'NONE', *, *, #36, .T. ) ;
#45 = CARTESIAN_POINT ( 'NONE',  ( 0.0000000000000000000, -6.000000000000000000, 0.0000000000000000000 ) ) ;
#46 = EDGE_CURVE ( 'NONE', #267, #124, #294, .T. ) ;
#47 = AXIS2_PLACEMENT_3D ( 'NONE', #163, #256, #53 ) ;
#48 = DIRECTION ( 'NONE',  ( 0.0000000000000000000, 0.0000000000000000000, -1.000000000000000000 ) ) ;
#49 = CARTESIAN_POINT ( 'NONE',  ( 1.500000000000000000, 4.999999999999999112, 0.0000000000000000000 ) ) ;
#50 = CARTESIAN_POINT ( 'NONE',  ( 0.0000000000000000000, 0.0000000000000000000, 0.0000000000000000000 ) ) ;
#51 = FACE_OUTER_BOUND ( 'NONE', #88, .T. ) ;
#52 = AXIS2_PLACEMENT_3D ( 'NONE', #115, #1, #90 ) ;
#53 = DIRECTION ( 'NONE',  ( 1.000000000000000000, 0.0000000000000000000, 0.0000000000000000000 ) ) ;
#54 = CARTESIAN_POINT ( 'NONE',  ( 1.224646799147353700E-16, 5.000000000000000000, 1.000000000000000000 ) ) ;
#55 = DIRECTION ( 'NONE',  ( -0.0000000000000000000, -1.000000000000000000, -0.0000000000000000000 ) ) ;
#56 = DIRECTION ( 'NONE',  ( -0.0000000000000000000, -1.000000000000000000, -0.0000000000000000000 ) ) ;
#57 = EDGE_CURVE ( 'NONE', #219, #30, #75, .T. ) ;
#58 = CARTESIAN_POINT ( 'NONE',  ( 0.0000000000000000000, -6.000000000000000000, 0.0000000000000000000 ) ) ;
#59 =( GEOMETRIC_REPRESENTATION_CONTEXT ( 3 ) GLOBAL_UNCERTAINTY_ASSIGNED_CONTEXT ( ( #147 ) ) GLOBAL_UNIT_ASSIGNED_CONTEXT ( ( #254, #232, #210 ) ) REPRESENTATION_CONTEXT ( 'NONE', 'WORKASPACE' ) );
#60 = EDGE_LOOP ( 'NONE', ( #262, #197, #173, #19 ) ) ;
#61 = ORIENTED_EDGE ( 'NONE', *, *, #140, .T. ) ;
#62 = ORIENTED_EDGE ( 'NONE', *, *, #135, .F. ) ;
#63 = MANIFOLD_SOLID_BREP ( 'Révolution1', #288 ) ;
#64 = LINE ( 'NONE', #109, #16 ) ;
#65 = ORIENTED_EDGE ( 'NONE', *, *, #293, .T. ) ;
#66 = ORIENTED_EDGE ( 'NONE', *, *, #293, .F. ) ;
#67 = VECTOR ( 'NONE', #18, 1000.000000000000000 ) ;
#68 = EDGE_LOOP ( 'NONE', ( #66, #71 ) ) ;
#69 = VECTOR ( 'NONE', #209, 1000.000000000000000 ) ;
#70 = AXIS2_PLACEMENT_3D ( 'NONE', #271, #225, #158 ) ;
#71 = ORIENTED_EDGE ( 'NONE', *, *, #207, .F. ) ;
#72 = ADVANCED_FACE ( 'NONE', ( #279, #21 ), #73, .T. ) ;
#73 = PLANE ( 'NONE',  #263 ) ;
#74 = FACE_BOUND ( 'NONE', #94, .T. ) ;
#75 = CIRCLE ( 'NONE', #93, 2.500000000000000444 ) ;
#76 = CARTESIAN_POINT ( 'NONE',  ( 0.0000000000000000000, -2.685873093584515553E-16, -1.500000000000000000 ) ) ;
#77 = CARTESIAN_POINT ( 'NONE',  ( 0.0000000000000000000, 5.000000000000000000, 0.0000000000000000000 ) ) ;
#78 = DIRECTION ( 'NONE',  ( -0.0000000000000000000, -1.000000000000000000, -0.0000000000000000000 ) ) ;
#79 = DIRECTION ( 'NONE',  ( -0.0000000000000000000, -1.000000000000000000, -0.0000000000000000000 ) ) ;
#80 = EDGE_CURVE ( 'NONE', #270, #218, #249, .T. ) ;
#81 = AXIS2_PLACEMENT_3D ( 'NONE', #50, #138, #231 ) ;
#82 = CARTESIAN_POINT ( 'NONE',  ( 0.0000000000000000000, 0.0000000000000000000, 0.0000000000000000000 ) ) ;
#83 = DIRECTION ( 'NONE',  ( 0.0000000000000000000, 0.0000000000000000000, -1.000000000000000000 ) ) ;
#84 = ADVANCED_FACE ( 'NONE', ( #116, #204 ), #5, .T. ) ;
#85 = CARTESIAN_POINT ( 'NONE',  ( 0.0000000000000000000, -6.000000000000000000, 0.0000000000000000000 ) ) ;
#86 = ORIENTED_EDGE ( 'NONE', *, *, #238, .F. ) ;
#87 = ORIENTED_EDGE ( 'NONE', *, *, #140, .F. ) ;
#88 = EDGE_LOOP ( 'NONE', ( #87, #110, #112, #148 ) ) ;
#89 = PRODUCT_DEFINITION_FORMATION_WITH_SPECIFIED_SOURCE ( 'ANY', '', #247, .NOT_KNOWN. ) ;
#90 = DIRECTION ( 'NONE',  ( 0.0000000000000000000, 0.0000000000000000000, -1.000000000000000000 ) ) ;
#91 = SURFACE_SIDE_STYLE ('',( #2 ) ) ;
#92 = EDGE_LOOP ( 'NONE', ( #152, #176 ) ) ;
#93 = AXIS2_PLACEMENT_3D ( 'NONE', #45, #134, #223 ) ;
#94 = EDGE_LOOP ( 'NONE', ( #141, #170 ) ) ;
#95 = VECTOR ( 'NONE', #182, 1000.000000000000000 ) ;
#96 = CARTESIAN_POINT ( 'NONE',  ( 2.500000000000000000, -1.036774847005419413E-16, 0.0000000000000000000 ) ) ;
#97 = ADVANCED_FACE ( 'NONE', ( #74, #159 ), #251, .T. ) ;
#98 = CARTESIAN_POINT ( 'NONE',  ( 0.0000000000000000000, 4.999999999999999112, 0.0000000000000000000 ) ) ;
#99 = SURFACE_SIDE_STYLE ('',( #9 ) ) ;
#100 = CARTESIAN_POINT ( 'NONE',  ( 3.061616997868383634E-16, 0.0000000000000000000, 2.500000000000000444 ) ) ;
#101 = PRODUCT_DEFINITION ( 'UNKNOWN', '', #89, #266 ) ;
#102 = CARTESIAN_POINT ( 'NONE',  ( 0.0000000000000000000, 0.0000000000000000000, -1.000000000000000666 ) ) ;
#103 = FACE_OUTER_BOUND ( 'NONE', #60, .T. ) ;
#104 = EDGE_CURVE ( 'NONE', #153, #124, #4, .T. ) ;
#105 = EDGE_LOOP ( 'NONE', ( #198, #194, #196, #65 ) ) ;
#106 = CARTESIAN_POINT ( 'NONE',  ( 1.836970198721029934E-16, 4.999999999999999112, 1.500000000000000000 ) ) ;
#107 = FACE_OUTER_BOUND ( 'NONE', #202, .T. ) ;
#108 = CIRCLE ( 'NONE', #131, 1.000000000000000000 ) ;
#109 = CARTESIAN_POINT ( 'NONE',  ( 1.836970198721029934E-16, 0.0000000000000000000, 1.500000000000000000 ) ) ;
#110 = ORIENTED_EDGE ( 'NONE', *, *, #17, .T. ) ;
#111 = VERTEX_POINT ( 'NONE', #7 ) ;
#112 = ORIENTED_EDGE ( 'NONE', *, *, #135, .T. ) ;
#113 = EDGE_CURVE ( 'NONE', #272, #267, #25, .T. ) ;
#114 = FILL_AREA_STYLE_COLOUR ( '', #126 ) ;
#115 = CARTESIAN_POINT ( 'NONE',  ( 0.0000000000000000000, 6.123233995736766036E-17, 0.0000000000000000000 ) ) ;
#116 = FACE_BOUND ( 'NONE', #92, .T. ) ;
#117 = CIRCLE ( 'NONE', #6, 1.000000000000001332 ) ;
#118 = DIRECTION ( 'NONE',  ( -0.0000000000000000000, -1.000000000000000000, -0.0000000000000000000 ) ) ;
#119 = FILL_AREA_STYLE_COLOUR ( '', #169 ) ;
#120 = CARTESIAN_POINT ( 'NONE',  ( 0.0000000000000000000, 0.0000000000000000000, -2.500000000000000444 ) ) ;
#121 = APPLICATION_CONTEXT ( 'automotive_design' ) ;
#122 = DIRECTION ( 'NONE',  ( 0.0000000000000000000, 0.0000000000000000000, -1.000000000000000000 ) ) ;
#123 = CARTESIAN_POINT ( 'NONE',  ( 0.0000000000000000000, 0.0000000000000000000, 0.0000000000000000000 ) ) ;
#124 = VERTEX_POINT ( 'NONE', #76 ) ;
#125 = DIRECTION ( 'NONE',  ( 0.0000000000000000000, 0.0000000000000000000, -1.000000000000000000 ) ) ;
#126 = COLOUR_RGB ( '',0.7921568627450980005, 0.8196078431372548767, 0.9333333333333333481 ) ;
#127 = EDGE_LOOP ( 'NONE', ( #235, #183 ) ) ;
#128 = DIRECTION ( 'NONE',  ( -0.0000000000000000000, -1.000000000000000000, -0.0000000000000000000 ) ) ;
#129 = STYLED_ITEM ( 'NONE', ( #277 ), #63 ) ;
#130 = EDGE_LOOP ( 'NONE', ( #44, #61, #41, #62 ) ) ;
#131 = AXIS2_PLACEMENT_3D ( 'NONE', #77, #161, #255 ) ;
#132 = ADVANCED_FACE ( 'NONE', ( #160 ), #253, .T. ) ;
#133 =( GEOMETRIC_REPRESENTATION_CONTEXT ( 3 ) GLOBAL_UNCERTAINTY_ASSIGNED_CONTEXT ( ( #35 ) ) GLOBAL_UNIT_ASSIGNED_CONTEXT ( ( #215, #190, #179 ) ) REPRESENTATION_CONTEXT ( 'NONE', 'WORKASPACE' ) );
#134 = DIRECTION ( 'NONE',  ( -0.0000000000000000000, -1.000000000000000000, -0.0000000000000000000 ) ) ;
#135 = EDGE_CURVE ( 'NONE', #171, #219, #27, .T. ) ;
#136 = CARTESIAN_POINT ( 'NONE',  ( 0.0000000000000000000, 5.000000000000000000, 0.0000000000000000000 ) ) ;
#137 = DIRECTION ( 'NONE',  ( 0.0000000000000000000, 1.000000000000000000, 0.0000000000000000000 ) ) ;
#138 = DIRECTION ( 'NONE',  ( -0.0000000000000000000, -1.000000000000000000, -0.0000000000000000000 ) ) ;
#139 = CYLINDRICAL_SURFACE ( 'NONE', #167, 2.500000000000000444 ) ;
#140 = EDGE_CURVE ( 'NONE', #111, #30, #11, .T. ) ;
#141 = ORIENTED_EDGE ( 'NONE', *, *, #80, .T. ) ;
#142 = PRODUCT_CONTEXT ( 'NONE', #121, 'mechanical' ) ;
#143 = CARTESIAN_POINT ( 'NONE',  ( 0.0000000000000000000, -6.000000000000000000, -2.500000000000000444 ) ) ;
#144 = DIRECTION ( 'NONE',  ( 0.0000000000000000000, 0.0000000000000000000, -1.000000000000000000 ) ) ;
#145 = PRESENTATION_LAYER_ASSIGNMENT (  '', '', ( #220 ) ) ;
#146 = DIRECTION ( 'NONE',  ( -0.0000000000000000000, -1.000000000000000000, -0.0000000000000000000 ) ) ;
#147 = UNCERTAINTY_MEASURE_WITH_UNIT (LENGTH_MEASURE( 1.000000000000000082E-05 ), #254, 'distance_accuracy_value', 'NONE');
#148 = ORIENTED_EDGE ( 'NONE', *, *, #22, .F. ) ;
#149 = ORIENTED_EDGE ( 'NONE', *, *, #23, .T. ) ;
#150 = VECTOR ( 'NONE', #184, 1000.000000000000000 ) ;
#151 = EDGE_LOOP ( 'NONE', ( #191, #3 ) ) ;
#152 = ORIENTED_EDGE ( 'NONE', *, *, #238, .T. ) ;
#153 = VERTEX_POINT ( 'NONE', #285 ) ;
#154 = EDGE_LOOP ( 'NONE', ( #275, #278, #280, #14 ) ) ;
#155 = EDGE_CURVE ( 'NONE', #218, #270, #108, .T. ) ;
#156 = PRODUCT_DEFINITION_SHAPE ( 'NONE', 'NONE',  #101 ) ;
#157 = CARTESIAN_POINT ( 'NONE',  ( 1.000000000000001332, -6.000000000000000000, 0.0000000000000000000 ) ) ;
#158 = DIRECTION ( 'NONE',  ( 0.0000000000000000000, 0.0000000000000000000, -1.000000000000000000 ) ) ;
#159 = FACE_OUTER_BOUND ( 'NONE', #127, .T. ) ;
#160 = FACE_OUTER_BOUND ( 'NONE', #154, .T. ) ;
#161 = DIRECTION ( 'NONE',  ( -0.0000000000000000000, -1.000000000000000000, -0.0000000000000000000 ) ) ;
#162 = ADVANCED_FACE ( 'NONE', ( #51 ), #139, .T. ) ;
#163 = CARTESIAN_POINT ( 'NONE',  ( 0.0000000000000000000, 0.0000000000000000000, 0.0000000000000000000 ) ) ;
#164 = DIRECTION ( 'NONE',  ( 0.0000000000000000000, 0.0000000000000000000, -1.000000000000000000 ) ) ;
#165 = AXIS2_PLACEMENT_3D ( 'NONE', #49, #137, #229 ) ;
#166 = DIRECTION ( 'NONE',  ( 0.0000000000000000000, 0.0000000000000000000, -1.000000000000000000 ) ) ;
#167 = AXIS2_PLACEMENT_3D ( 'NONE', #233, #29, #122 ) ;
#168 = DIRECTION ( 'NONE',  ( -0.0000000000000000000, -1.000000000000000000, -0.0000000000000000000 ) ) ;
#169 = COLOUR_RGB ( '',0.7921568627450980005, 0.8196078431372548767, 0.9333333333333333481 ) ;
#170 = ORIENTED_EDGE ( 'NONE', *, *, #155, .T. ) ;
#171 = VERTEX_POINT ( 'NONE', #211 ) ;
#172 = CIRCLE ( 'NONE', #177, 1.000000000000001332 ) ;
#173 = ORIENTED_EDGE ( 'NONE', *, *, #207, .T. ) ;
#174 = PRESENTATION_LAYER_ASSIGNMENT (  '', '', ( #129 ) ) ;
#175 = SURFACE_STYLE_USAGE ( .BOTH. , #91 ) ;
#176 = ORIENTED_EDGE ( 'NONE', *, *, #104, .T. ) ;
#177 = AXIS2_PLACEMENT_3D ( 'NONE', #286, #78, #164 ) ;
#178 = DIRECTION ( 'NONE',  ( 0.0000000000000000000, 1.000000000000000000, 0.0000000000000000000 ) ) ;
#179 =( NAMED_UNIT ( * ) SI_UNIT ( $, .STERADIAN. ) SOLID_ANGLE_UNIT ( ) );
#180 = DIRECTION ( 'NONE',  ( -0.0000000000000000000, -1.000000000000000000, -0.0000000000000000000 ) ) ;
#181 = SURFACE_STYLE_USAGE ( .BOTH. , #99 ) ;
#182 = DIRECTION ( 'NONE',  ( -0.0000000000000000000, -1.000000000000000000, -0.0000000000000000000 ) ) ;
#183 = ORIENTED_EDGE ( 'NONE', *, *, #113, .F. ) ;
#184 = DIRECTION ( 'NONE',  ( -0.0000000000000000000, -1.000000000000000000, -0.0000000000000000000 ) ) ;
#185 = CYLINDRICAL_SURFACE ( 'NONE', #241, 1.000000000000000666 ) ;
#186 = EDGE_CURVE ( 'NONE', #270, #213, #12, .T. ) ;
#187 = CYLINDRICAL_SURFACE ( 'NONE', #70, 1.500000000000000000 ) ;
#188 = FACE_OUTER_BOUND ( 'NONE', #130, .T. ) ;
#189 = DIRECTION ( 'NONE',  ( -0.0000000000000000000, -1.000000000000000000, -0.0000000000000000000 ) ) ;
#190 =( NAMED_UNIT ( * ) PLANE_ANGLE_UNIT ( ) SI_UNIT ( $, .RADIAN. ) );
#191 = ORIENTED_EDGE ( 'NONE', *, *, #57, .T. ) ;
#192 = MECHANICAL_DESIGN_GEOMETRIC_PRESENTATION_REPRESENTATION (  '', ( #129 ), #221 ) ;
#193 = ORIENTED_EDGE ( 'NONE', *, *, #244, .T. ) ;
#194 = ORIENTED_EDGE ( 'NONE', *, *, #80, .F. ) ;
#195 = ORIENTED_EDGE ( 'NONE', *, *, #36, .F. ) ;
#196 = ORIENTED_EDGE ( 'NONE', *, *, #186, .T. ) ;
#197 = ORIENTED_EDGE ( 'NONE', *, *, #28, .T. ) ;
#198 = ORIENTED_EDGE ( 'NONE', *, *, #28, .F. ) ;
#199 = CARTESIAN_POINT ( 'NONE',  ( 1.224646799147354933E-16, -6.000000000000000000, 1.000000000000001332 ) ) ;
#200 = DIRECTION ( 'NONE',  ( -0.0000000000000000000, -1.000000000000000000, -0.0000000000000000000 ) ) ;
#201 = FILL_AREA_STYLE ('',( #114 ) ) ;
#202 = EDGE_LOOP ( 'NONE', ( #193, #149, #86, #268 ) ) ;
#203 =( NAMED_UNIT ( * ) SI_UNIT ( $, .STERADIAN. ) SOLID_ANGLE_UNIT ( ) );
#204 = FACE_OUTER_BOUND ( 'NONE', #274, .T. ) ;
#205 = DIRECTION ( 'NONE',  ( 0.0000000000000000000, 0.0000000000000000000, -1.000000000000000000 ) ) ;
#206 = AXIS2_PLACEMENT_3D ( 'NONE', #82, #168, #260 ) ;
#207 = EDGE_CURVE ( 'NONE', #37, #213, #172, .T. ) ;
#208 = FILL_AREA_STYLE ('',( #119 ) ) ;
#209 = DIRECTION ( 'NONE',  ( -0.0000000000000000000, -1.000000000000000000, -0.0000000000000000000 ) ) ;
#210 =( NAMED_UNIT ( * ) SI_UNIT ( $, .STERADIAN. ) SOLID_ANGLE_UNIT ( ) );
#211 = CARTESIAN_POINT ( 'NONE',  ( 0.0000000000000000000, 6.123233995736766036E-17, -2.500000000000000000 ) ) ;
#212 = DIRECTION ( 'NONE',  ( -0.0000000000000000000, -1.000000000000000000, -0.0000000000000000000 ) ) ;
#213 = VERTEX_POINT ( 'NONE', #257 ) ;
#214 = CARTESIAN_POINT ( 'NONE',  ( 0.0000000000000000000, 4.999999999999999112, -1.500000000000000000 ) ) ;
#215 =( LENGTH_UNIT ( ) NAMED_UNIT ( * ) SI_UNIT ( .MILLI., .METRE. ) );
#216 = UNCERTAINTY_MEASURE_WITH_UNIT (LENGTH_MEASURE( 1.000000000000000082E-05 ), #246, 'distance_accuracy_value', 'NONE');
#217 = LINE ( 'NONE', #269, #42 ) ;
#218 = VERTEX_POINT ( 'NONE', #54 ) ;
#219 = VERTEX_POINT ( 'NONE', #143 ) ;
#220 = STYLED_ITEM ( 'NONE', ( #284 ), #281 ) ;
#221 =( GEOMETRIC_REPRESENTATION_CONTEXT ( 3 ) GLOBAL_UNCERTAINTY_ASSIGNED_CONTEXT ( ( #216 ) ) GLOBAL_UNIT_ASSIGNED_CONTEXT ( ( #246, #226, #203 ) ) REPRESENTATION_CONTEXT ( 'NONE', 'WORKASPACE' ) );
#222 = AXIS2_PLACEMENT_3D ( 'NONE', #123, #212, #13 ) ;
#223 = DIRECTION ( 'NONE',  ( 0.0000000000000000000, 0.0000000000000000000, -1.000000000000000000 ) ) ;
#224 = ADVANCED_FACE ( 'NONE', ( #237 ), #32, .F. ) ;
#225 = DIRECTION ( 'NONE',  ( -0.0000000000000000000, -1.000000000000000000, -0.0000000000000000000 ) ) ;
#226 =( NAMED_UNIT ( * ) PLANE_ANGLE_UNIT ( ) SI_UNIT ( $, .RADIAN. ) );
#227 = DIRECTION ( 'NONE',  ( -0.0000000000000000000, -1.000000000000000000, -0.0000000000000000000 ) ) ;
#228 = CIRCLE ( 'NONE', #259, 1.500000000000000000 ) ;
#229 = DIRECTION ( 'NONE',  ( 0.0000000000000000000, -0.0000000000000000000, 1.000000000000000000 ) ) ;
#230 = APPLICATION_CONTEXT ( 'automotive_design' ) ;
#231 = DIRECTION ( 'NONE',  ( 0.0000000000000000000, 0.0000000000000000000, -1.000000000000000000 ) ) ;
#232 =( NAMED_UNIT ( * ) PLANE_ANGLE_UNIT ( ) SI_UNIT ( $, .RADIAN. ) );
#233 = CARTESIAN_POINT ( 'NONE',  ( 0.0000000000000000000, 0.0000000000000000000, 0.0000000000000000000 ) ) ;
#234 = ADVANCED_FACE ( 'NONE', ( #103 ), #185, .F. ) ;
#235 = ORIENTED_EDGE ( 'NONE', *, *, #244, .F. ) ;
#236 = APPLICATION_PROTOCOL_DEFINITION ( 'draft international standard', 'automotive_design', 1998, #230 ) ;
#237 = FACE_OUTER_BOUND ( 'NONE', #105, .T. ) ;
#238 = EDGE_CURVE ( 'NONE', #124, #153, #228, .T. ) ;
#239 = CARTESIAN_POINT ( 'NONE',  ( 0.0000000000000000000, 4.999999999999999112, 0.0000000000000000000 ) ) ;
#240 = DIRECTION ( 'NONE',  ( 0.0000000000000000000, 0.0000000000000000000, -1.000000000000000000 ) ) ;
#241 = AXIS2_PLACEMENT_3D ( 'NONE', #287, #79, #166 ) ;
#242 = CARTESIAN_POINT ( 'NONE',  ( 0.0000000000000000000, 0.0000000000000000000, -1.500000000000000000 ) ) ;
#243 = AXIS2_PLACEMENT_3D ( 'NONE', #136, #227, #24 ) ;
#244 = EDGE_CURVE ( 'NONE', #267, #272, #276, .T. ) ;
#245 = CARTESIAN_POINT ( 'NONE',  ( 3.061616997868383634E-16, -6.000000000000000000, 2.500000000000000444 ) ) ;
#246 =( LENGTH_UNIT ( ) NAMED_UNIT ( * ) SI_UNIT ( .MILLI., .METRE. ) );
#247 = PRODUCT ( 'DE-24-12-18-04-piquage pression', 'DE-24-12-18-04-piquage pression', '', ( #142 ) ) ;
#248 = DIRECTION ( 'NONE',  ( 0.0000000000000000000, -1.000000000000000000, -0.0000000000000000000 ) ) ;
#249 = CIRCLE ( 'NONE', #243, 1.000000000000000000 ) ;
#250 = PRODUCT_RELATED_PRODUCT_CATEGORY ( 'part', '', ( #247 ) ) ;
#251 = PLANE ( 'NONE',  #165 ) ;
#252 = APPLICATION_PROTOCOL_DEFINITION ( 'draft international standard', 'automotive_design', 1998, #121 ) ;
#253 = CYLINDRICAL_SURFACE ( 'NONE', #81, 1.500000000000000000 ) ;
#254 =( LENGTH_UNIT ( ) NAMED_UNIT ( * ) SI_UNIT ( .MILLI., .METRE. ) );
#255 = DIRECTION ( 'NONE',  ( 0.0000000000000000000, 0.0000000000000000000, -1.000000000000000000 ) ) ;
#256 = DIRECTION ( 'NONE',  ( 0.0000000000000000000, 0.0000000000000000000, 1.000000000000000000 ) ) ;
#257 = CARTESIAN_POINT ( 'NONE',  ( 0.0000000000000000000, -6.000000000000000000, -1.000000000000001332 ) ) ;
#258 = CARTESIAN_POINT ( 'NONE',  ( 0.0000000000000000000, -2.685873093584515553E-16, 0.0000000000000000000 ) ) ;
#259 = AXIS2_PLACEMENT_3D ( 'NONE', #258, #55, #144 ) ;
#260 = DIRECTION ( 'NONE',  ( 0.0000000000000000000, 0.0000000000000000000, -1.000000000000000000 ) ) ;
#261 = MECHANICAL_DESIGN_GEOMETRIC_PRESENTATION_REPRESENTATION (  '', ( #220 ), #59 ) ;
#262 = ORIENTED_EDGE ( 'NONE', *, *, #155, .F. ) ;
#263 = AXIS2_PLACEMENT_3D ( 'NONE', #157, #248, #48 ) ;
#264 = AXIS2_PLACEMENT_3D ( 'NONE', #34, #56, #83 ) ;
#265 = DIRECTION ( 'NONE',  ( 0.0000000000000000000, 0.0000000000000000000, -1.000000000000000000 ) ) ;
#266 = PRODUCT_DEFINITION_CONTEXT ( 'detailed design', #230, 'design' ) ;
#267 = VERTEX_POINT ( 'NONE', #214 ) ;
#268 = ORIENTED_EDGE ( 'NONE', *, *, #46, .F. ) ;
#269 = CARTESIAN_POINT ( 'NONE',  ( 1.224646799147354193E-16, 0.0000000000000000000, 1.000000000000000666 ) ) ;
#270 = VERTEX_POINT ( 'NONE', #15 ) ;
#271 = CARTESIAN_POINT ( 'NONE',  ( 0.0000000000000000000, 0.0000000000000000000, 0.0000000000000000000 ) ) ;
#272 = VERTEX_POINT ( 'NONE', #106 ) ;
#273 = ORIENTED_EDGE ( 'NONE', *, *, #17, .F. ) ;
#274 = EDGE_LOOP ( 'NONE', ( #195, #273 ) ) ;
#275 = ORIENTED_EDGE ( 'NONE', *, *, #23, .F. ) ;
#276 = CIRCLE ( 'NONE', #290, 1.500000000000000000 ) ;
#277 = PRESENTATION_STYLE_ASSIGNMENT (( #175 ) ) ;
#278 = ORIENTED_EDGE ( 'NONE', *, *, #113, .T. ) ;
#279 = FACE_OUTER_BOUND ( 'NONE', #151, .T. ) ;
#280 = ORIENTED_EDGE ( 'NONE', *, *, #46, .T. ) ;
#281 = ADVANCED_BREP_SHAPE_REPRESENTATION ( 'DE-24-12-18-04-piquage pression', ( #63, #47 ), #133 ) ;
#282 = DIRECTION ( 'NONE',  ( 0.0000000000000000000, -0.0000000000000000000, 1.000000000000000000 ) ) ;
#283 = DIRECTION ( 'NONE',  ( 0.0000000000000000000, 0.0000000000000000000, -1.000000000000000000 ) ) ;
#284 = PRESENTATION_STYLE_ASSIGNMENT (( #181 ) ) ;
#285 = CARTESIAN_POINT ( 'NONE',  ( 1.836970198721029934E-16, -2.685873093584515553E-16, 1.500000000000000000 ) ) ;
#286 = CARTESIAN_POINT ( 'NONE',  ( 0.0000000000000000000, -6.000000000000000000, 0.0000000000000000000 ) ) ;
#287 = CARTESIAN_POINT ( 'NONE',  ( 0.0000000000000000000, 0.0000000000000000000, 0.0000000000000000000 ) ) ;
#288 = CLOSED_SHELL ( 'NONE', ( #40, #291, #234, #224, #72, #162, #84, #132, #97 ) ) ;
#289 = CYLINDRICAL_SURFACE ( 'NONE', #206, 2.500000000000000444 ) ;
#290 = AXIS2_PLACEMENT_3D ( 'NONE', #239, #33, #125 ) ;
#291 = ADVANCED_FACE ( 'NONE', ( #188 ), #289, .T. ) ;
#292 = CIRCLE ( 'NONE', #264, 2.500000000000000000 ) ;
#293 = EDGE_CURVE ( 'NONE', #213, #37, #117, .T. ) ;
#294 = LINE ( 'NONE', #242, #67 ) ;
ENDSEC;
END-ISO-10303-21;
