ISO-10303-21;
HEADER;
FILE_DESCRIPTION (( 'STEP AP214' ),
    '1' );
FILE_NAME ('Pièce1.STEP',
    '2019-10-22T08:29:31',
    ( '' ),
    ( '' ),
    'SwSTEP 2.0',
    'SolidWorks 2018',
    '' );
FILE_SCHEMA (( 'AUTOMOTIVE_DESIGN' ));
ENDSEC;

DATA;
#1 = DIRECTION ( 'NONE',  ( 1.000000000000000000, 0.0000000000000000000, 0.0000000000000000000 ) ) ;
#2 = FACE_OUTER_BOUND ( 'NONE', #163, .T. ) ;
#3 = DIRECTION ( 'NONE',  ( -0.0000000000000000000, -0.0000000000000000000, -1.000000000000000000 ) ) ;
#4 = CARTESIAN_POINT ( 'NONE',  ( -0.0000000000000000000, 0.0000000000000000000, 0.0000000000000000000 ) ) ;
#5 = APPLICATION_CONTEXT ( 'automotive_design' ) ;
#6 = DIRECTION ( 'NONE',  ( 1.000000000000000000, 0.0000000000000000000, 0.0000000000000000000 ) ) ;
#7 = VERTEX_POINT ( 'NONE', #261 ) ;
#8 = DIRECTION ( 'NONE',  ( 1.000000000000000000, -1.239088197126290817E-16, 0.0000000000000000000 ) ) ;
#9 = EDGE_LOOP ( 'NONE', ( #190, #95, #188, #245 ) ) ;
#10 = DIRECTION ( 'NONE',  ( 1.000000000000000000, 0.0000000000000000000, 0.0000000000000000000 ) ) ;
#11 = FILL_AREA_STYLE_COLOUR ( '', #124 ) ;
#12 = PRODUCT_DEFINITION_FORMATION_WITH_SPECIFIED_SOURCE ( 'ANY', '', #37, .NOT_KNOWN. ) ;
#13 = CARTESIAN_POINT ( 'NONE',  ( 0.0000000000000000000, 7.000000000000000000, 0.0000000000000000000 ) ) ;
#14 = AXIS2_PLACEMENT_3D ( 'NONE', #211, #236, #189 ) ;
#15 = LINE ( 'NONE', #104, #109 ) ;
#16 = SURFACE_STYLE_FILL_AREA ( #156 ) ;
#17 = ADVANCED_FACE ( 'NONE', ( #61 ), #86, .T. ) ;
#18 = VECTOR ( 'NONE', #212, 1000.000000000000000 ) ;
#19 = COLOUR_RGB ( '',0.6470588235294117974, 0.6196078431372549211, 0.5882352941176470784 ) ;
#20 = ORIENTED_EDGE ( 'NONE', *, *, #234, .F. ) ;
#21 = DIRECTION ( 'NONE',  ( 1.239088197126290817E-16, 1.000000000000000000, 0.0000000000000000000 ) ) ;
#22 = DIRECTION ( 'NONE',  ( -0.0000000000000000000, -0.0000000000000000000, -1.000000000000000000 ) ) ;
#23 = CARTESIAN_POINT ( 'NONE',  ( -5.000000000000000888, 4.500000000000000000, 4.500000000000000000 ) ) ;
#24 = FACE_OUTER_BOUND ( 'NONE', #173, .T. ) ;
#25 = APPLICATION_PROTOCOL_DEFINITION ( 'draft international standard', 'automotive_design', 1998, #5 ) ;
#26 = EDGE_CURVE ( 'NONE', #134, #244, #165, .T. ) ;
#27 = CARTESIAN_POINT ( 'NONE',  ( 5.000000000000000000, 0.0000000000000000000, 4.500000000000000000 ) ) ;
#28 = CARTESIAN_POINT ( 'NONE',  ( -5.000000000000000000, -6.195440985631454331E-16, 4.500000000000000000 ) ) ;
#29 = DIRECTION ( 'NONE',  ( -0.0000000000000000000, 0.0000000000000000000, 1.000000000000000000 ) ) ;
#30 = STYLED_ITEM ( 'NONE', ( #59 ), #167 ) ;
#31 = FILL_AREA_STYLE_COLOUR ( '', #19 ) ;
#32 = VECTOR ( 'NONE', #88, 1000.000000000000000 ) ;
#33 =( LENGTH_UNIT ( ) NAMED_UNIT ( * ) SI_UNIT ( .MILLI., .METRE. ) );
#34 = ORIENTED_EDGE ( 'NONE', *, *, #218, .T. ) ;
#35 = LINE ( 'NONE', #45, #183 ) ;
#36 = VECTOR ( 'NONE', #85, 1000.000000000000000 ) ;
#37 = PRODUCT ( 'Pièce1', 'Pièce1', '', ( #233 ) ) ;
#38 = ORIENTED_EDGE ( 'NONE', *, *, #247, .T. ) ;
#39 = CARTESIAN_POINT ( 'NONE',  ( 5.000000000000000000, -6.195440985631454331E-16, 0.0000000000000000000 ) ) ;
#40 = CARTESIAN_POINT ( 'NONE',  ( 5.000000000000000888, 4.500000000000001776, 4.500000000000000000 ) ) ;
#41 = LINE ( 'NONE', #80, #119 ) ;
#42 = PLANE ( 'NONE',  #112 ) ;
#43 = PLANE ( 'NONE',  #155 ) ;
#44 = ORIENTED_EDGE ( 'NONE', *, *, #26, .T. ) ;
#45 = CARTESIAN_POINT ( 'NONE',  ( -5.000000000000000000, -6.195440985631454331E-16, 4.500000000000000000 ) ) ;
#46 = CARTESIAN_POINT ( 'NONE',  ( 5.000000000000000000, 0.0000000000000000000, 4.500000000000000000 ) ) ;
#47 = APPLICATION_PROTOCOL_DEFINITION ( 'draft international standard', 'automotive_design', 1998, #65 ) ;
#48 = CARTESIAN_POINT ( 'NONE',  ( 5.000000000000000000, 0.0000000000000000000, 0.0000000000000000000 ) ) ;
#49 = FILL_AREA_STYLE ('',( #31 ) ) ;
#50 = LINE ( 'NONE', #107, #262 ) ;
#51 = ORIENTED_EDGE ( 'NONE', *, *, #176, .F. ) ;
#52 = CARTESIAN_POINT ( 'NONE',  ( 0.0000000000000000000, 4.500000000000000000, 4.500000000000000000 ) ) ;
#53 = CARTESIAN_POINT ( 'NONE',  ( 0.0000000000000000000, 0.0000000000000000000, 4.500000000000000000 ) ) ;
#54 = AXIS2_PLACEMENT_3D ( 'NONE', #70, #170, #192 ) ;
#55 = STYLED_ITEM ( 'NONE', ( #227 ), #92 ) ;
#56 = VECTOR ( 'NONE', #1, 1000.000000000000000 ) ;
#57 = ORIENTED_EDGE ( 'NONE', *, *, #168, .F. ) ;
#58 = ADVANCED_FACE ( 'NONE', ( #2 ), #91, .T. ) ;
#59 = PRESENTATION_STYLE_ASSIGNMENT (( #229 ) ) ;
#60 = ORIENTED_EDGE ( 'NONE', *, *, #223, .F. ) ;
#61 = FACE_OUTER_BOUND ( 'NONE', #260, .T. ) ;
#62 = CARTESIAN_POINT ( 'NONE',  ( -0.0000000000000000000, 4.500000000000001776, 0.0000000000000000000 ) ) ;
#63 = ORIENTED_EDGE ( 'NONE', *, *, #223, .T. ) ;
#64 = PLANE ( 'NONE',  #129 ) ;
#65 = APPLICATION_CONTEXT ( 'automotive_design' ) ;
#66 = LINE ( 'NONE', #4, #71 ) ;
#67 =( GEOMETRIC_REPRESENTATION_CONTEXT ( 3 ) GLOBAL_UNCERTAINTY_ASSIGNED_CONTEXT ( ( #160 ) ) GLOBAL_UNIT_ASSIGNED_CONTEXT ( ( #76, #157, #258 ) ) REPRESENTATION_CONTEXT ( 'NONE', 'WORKASPACE' ) );
#68 = FACE_OUTER_BOUND ( 'NONE', #110, .T. ) ;
#69 = DIRECTION ( 'NONE',  ( 1.000000000000000000, 0.0000000000000000000, 0.0000000000000000000 ) ) ;
#70 = CARTESIAN_POINT ( 'NONE',  ( 0.0000000000000000000, 0.0000000000000000000, 0.0000000000000000000 ) ) ;
#71 = VECTOR ( 'NONE', #257, 1000.000000000000000 ) ;
#72 = DIRECTION ( 'NONE',  ( 0.0000000000000000000, -0.0000000000000000000, 1.000000000000000000 ) ) ;
#73 = ORIENTED_EDGE ( 'NONE', *, *, #186, .F. ) ;
#74 =( NAMED_UNIT ( * ) PLANE_ANGLE_UNIT ( ) SI_UNIT ( $, .RADIAN. ) );
#75 = ORIENTED_EDGE ( 'NONE', *, *, #121, .F. ) ;
#76 =( LENGTH_UNIT ( ) NAMED_UNIT ( * ) SI_UNIT ( .MILLI., .METRE. ) );
#77 = ORIENTED_EDGE ( 'NONE', *, *, #108, .F. ) ;
#78 = AXIS2_PLACEMENT_3D ( 'NONE', #53, #114, #10 ) ;
#79 = VERTEX_POINT ( 'NONE', #178 ) ;
#80 = CARTESIAN_POINT ( 'NONE',  ( -5.000000000000000000, 9.453492714754178431E-22, 4.500000000000000000 ) ) ;
#81 = CARTESIAN_POINT ( 'NONE',  ( 0.0000000000000000000, 0.0000000000000000000, 4.500000000000000000 ) ) ;
#82 = DIRECTION ( 'NONE',  ( 1.000000000000000000, 1.239088197126290817E-16, -0.0000000000000000000 ) ) ;
#83 = LINE ( 'NONE', #62, #206 ) ;
#84 = CARTESIAN_POINT ( 'NONE',  ( 0.0000000000000000000, 4.500000000000001776, 4.500000000000000000 ) ) ;
#85 = DIRECTION ( 'NONE',  ( -1.239088197126290817E-16, -1.000000000000000000, 0.0000000000000000000 ) ) ;
#86 = PLANE ( 'NONE',  #224 ) ;
#87 = ORIENTED_EDGE ( 'NONE', *, *, #207, .T. ) ;
#88 = DIRECTION ( 'NONE',  ( -0.0000000000000000000, -0.0000000000000000000, -1.000000000000000000 ) ) ;
#89 = FACE_OUTER_BOUND ( 'NONE', #120, .T. ) ;
#90 = FACE_OUTER_BOUND ( 'NONE', #117, .T. ) ;
#91 = PLANE ( 'NONE',  #78 ) ;
#92 = MANIFOLD_SOLID_BREP ( 'Boss.-Extru.1', #221 ) ;
#93 =( NAMED_UNIT ( * ) SI_UNIT ( $, .STERADIAN. ) SOLID_ANGLE_UNIT ( ) );
#94 = PRESENTATION_LAYER_ASSIGNMENT (  '', '', ( #55 ) ) ;
#95 = ORIENTED_EDGE ( 'NONE', *, *, #152, .F. ) ;
#96 = VERTEX_POINT ( 'NONE', #201 ) ;
#97 = CYLINDRICAL_SURFACE ( 'NONE', #203, 5.000000000000000888 ) ;
#98 = EDGE_CURVE ( 'NONE', #113, #7, #225, .T. ) ;
#99 = ORIENTED_EDGE ( 'NONE', *, *, #121, .T. ) ;
#100 = VECTOR ( 'NONE', #174, 1000.000000000000000 ) ;
#101 = PRODUCT_DEFINITION ( 'UNKNOWN', '', #12, #139 ) ;
#102 = ORIENTED_EDGE ( 'NONE', *, *, #214, .F. ) ;
#103 = DIRECTION ( 'NONE',  ( 0.0000000000000000000, -0.0000000000000000000, 1.000000000000000000 ) ) ;
#104 = CARTESIAN_POINT ( 'NONE',  ( 0.0000000000000000000, 4.500000000000001776, 4.500000000000000000 ) ) ;
#105 = CARTESIAN_POINT ( 'NONE',  ( 0.0000000000000000000, 4.500000000000000000, 4.500000000000000000 ) ) ;
#106 = DIRECTION ( 'NONE',  ( 1.000000000000000000, 0.0000000000000000000, 0.0000000000000000000 ) ) ;
#107 = CARTESIAN_POINT ( 'NONE',  ( 0.0000000000000000000, 0.0000000000000000000, 4.500000000000000000 ) ) ;
#108 = EDGE_CURVE ( 'NONE', #244, #113, #159, .T. ) ;
#109 = VECTOR ( 'NONE', #270, 1000.000000000000000 ) ;
#110 = EDGE_LOOP ( 'NONE', ( #265, #73, #196, #38 ) ) ;
#111 = EDGE_CURVE ( 'NONE', #226, #238, #50, .T. ) ;
#112 = AXIS2_PLACEMENT_3D ( 'NONE', #130, #8, #21 ) ;
#113 = VERTEX_POINT ( 'NONE', #148 ) ;
#114 = DIRECTION ( 'NONE',  ( -0.0000000000000000000, 0.0000000000000000000, 1.000000000000000000 ) ) ;
#115 = PRODUCT_RELATED_PRODUCT_CATEGORY ( 'part', '', ( #37 ) ) ;
#116 = PRODUCT_DEFINITION_SHAPE ( 'NONE', 'NONE',  #101 ) ;
#117 = EDGE_LOOP ( 'NONE', ( #177, #153, #87, #20, #75, #133 ) ) ;
#118 = ORIENTED_EDGE ( 'NONE', *, *, #266, .T. ) ;
#119 = VECTOR ( 'NONE', #232, 1000.000000000000000 ) ;
#120 = EDGE_LOOP ( 'NONE', ( #251, #151, #144, #217 ) ) ;
#121 = EDGE_CURVE ( 'NONE', #244, #96, #141, .T. ) ;
#122 = LINE ( 'NONE', #40, #18 ) ;
#123 = DIRECTION ( 'NONE',  ( -0.0000000000000000000, -0.0000000000000000000, -1.000000000000000000 ) ) ;
#124 = COLOUR_RGB ( '',0.6470588235294117974, 0.6196078431372549211, 0.5882352941176470784 ) ;
#125 = CARTESIAN_POINT ( 'NONE',  ( -5.000000000000000888, 4.500000000000000000, 0.0000000000000000000 ) ) ;
#126 = EDGE_CURVE ( 'NONE', #7, #204, #83, .T. ) ;
#127 = DIRECTION ( 'NONE',  ( 1.000000000000000000, 0.0000000000000000000, 0.0000000000000000000 ) ) ;
#128 = DIRECTION ( 'NONE',  ( 1.239088197126290817E-16, -1.000000000000000000, 0.0000000000000000000 ) ) ;
#129 = AXIS2_PLACEMENT_3D ( 'NONE', #81, #185, #103 ) ;
#130 = CARTESIAN_POINT ( 'NONE',  ( 5.000000000000000000, -6.195440985631454331E-16, 4.500000000000000000 ) ) ;
#131 = CARTESIAN_POINT ( 'NONE',  ( 5.000000000000000000, -6.195440985631454331E-16, 4.500000000000000000 ) ) ;
#132 = VERTEX_POINT ( 'NONE', #259 ) ;
#133 = ORIENTED_EDGE ( 'NONE', *, *, #108, .T. ) ;
#134 = VERTEX_POINT ( 'NONE', #23 ) ;
#135 = VECTOR ( 'NONE', #123, 1000.000000000000000 ) ;
#136 = CARTESIAN_POINT ( 'NONE',  ( -0.0000000000000000000, 4.500000000000000000, 0.0000000000000000000 ) ) ;
#137 = MECHANICAL_DESIGN_GEOMETRIC_PRESENTATION_REPRESENTATION (  '', ( #55 ), #182 ) ;
#138 = VERTEX_POINT ( 'NONE', #48 ) ;
#139 = PRODUCT_DEFINITION_CONTEXT ( 'detailed design', #65, 'design' ) ;
#140 = SURFACE_STYLE_FILL_AREA ( #49 ) ;
#141 = LINE ( 'NONE', #240, #147 ) ;
#142 = ADVANCED_FACE ( 'NONE', ( #90 ), #169, .F. ) ;
#143 = PRESENTATION_LAYER_ASSIGNMENT (  '', '', ( #30 ) ) ;
#144 = ORIENTED_EDGE ( 'NONE', *, *, #176, .T. ) ;
#145 = FACE_OUTER_BOUND ( 'NONE', #9, .T. ) ;
#146 = DIRECTION ( 'NONE',  ( 0.0000000000000000000, -0.0000000000000000000, 1.000000000000000000 ) ) ;
#147 = VECTOR ( 'NONE', #254, 1000.000000000000000 ) ;
#148 = CARTESIAN_POINT ( 'NONE',  ( -4.330127018922195425, 4.500000000000000000, 0.0000000000000000000 ) ) ;
#149 = DIRECTION ( 'NONE',  ( -1.239088197126290817E-16, 1.000000000000000000, 0.0000000000000000000 ) ) ;
#150 = AXIS2_PLACEMENT_3D ( 'NONE', #13, #29, #106 ) ;
#151 = ORIENTED_EDGE ( 'NONE', *, *, #266, .F. ) ;
#152 = EDGE_CURVE ( 'NONE', #238, #138, #208, .T. ) ;
#153 = ORIENTED_EDGE ( 'NONE', *, *, #126, .T. ) ;
#154 = SURFACE_SIDE_STYLE ('',( #16 ) ) ;
#155 = AXIS2_PLACEMENT_3D ( 'NONE', #28, #82, #149 ) ;
#156 = FILL_AREA_STYLE ('',( #11 ) ) ;
#157 =( NAMED_UNIT ( * ) PLANE_ANGLE_UNIT ( ) SI_UNIT ( $, .RADIAN. ) );
#158 = SURFACE_STYLE_USAGE ( .BOTH. , #154 ) ;
#159 = LINE ( 'NONE', #136, #100 ) ;
#160 = UNCERTAINTY_MEASURE_WITH_UNIT (LENGTH_MEASURE( 1.000000000000000082E-05 ), #76, 'distance_accuracy_value', 'NONE');
#161 = LINE ( 'NONE', #191, #242 ) ;
#162 = ADVANCED_FACE ( 'NONE', ( #68 ), #228, .T. ) ;
#163 = EDGE_LOOP ( 'NONE', ( #51, #205, #63, #239, #57, #179 ) ) ;
#164 = SURFACE_SIDE_STYLE ('',( #140 ) ) ;
#165 = LINE ( 'NONE', #172, #32 ) ;
#166 = CARTESIAN_POINT ( 'NONE',  ( -5.000000000000000000, 9.453492714754178431E-22, 4.500000000000000000 ) ) ;
#167 = ADVANCED_BREP_SHAPE_REPRESENTATION ( 'PiÞce1', ( #92, #54 ), #237 ) ;
#168 = EDGE_CURVE ( 'NONE', #132, #238, #200, .T. ) ;
#169 = PLANE ( 'NONE',  #241 ) ;
#170 = DIRECTION ( 'NONE',  ( 0.0000000000000000000, 0.0000000000000000000, 1.000000000000000000 ) ) ;
#171 = LINE ( 'NONE', #249, #135 ) ;
#172 = CARTESIAN_POINT ( 'NONE',  ( -5.000000000000000888, 4.500000000000000000, 4.500000000000000000 ) ) ;
#173 = EDGE_LOOP ( 'NONE', ( #184, #219, #180, #210 ) ) ;
#174 = DIRECTION ( 'NONE',  ( 1.000000000000000000, 0.0000000000000000000, 0.0000000000000000000 ) ) ;
#175 = VECTOR ( 'NONE', #209, 1000.000000000000000 ) ;
#176 = EDGE_CURVE ( 'NONE', #79, #248, #216, .T. ) ;
#177 = ORIENTED_EDGE ( 'NONE', *, *, #98, .T. ) ;
#178 = CARTESIAN_POINT ( 'NONE',  ( -4.330127018922195425, 4.500000000000000000, 4.500000000000000000 ) ) ;
#179 = ORIENTED_EDGE ( 'NONE', *, *, #263, .F. ) ;
#180 = ORIENTED_EDGE ( 'NONE', *, *, #168, .T. ) ;
#181 = ADVANCED_FACE ( 'NONE', ( #24 ), #42, .T. ) ;
#182 =( GEOMETRIC_REPRESENTATION_CONTEXT ( 3 ) GLOBAL_UNCERTAINTY_ASSIGNED_CONTEXT ( ( #193 ) ) GLOBAL_UNIT_ASSIGNED_CONTEXT ( ( #33, #202, #93 ) ) REPRESENTATION_CONTEXT ( 'NONE', 'WORKASPACE' ) );
#183 = VECTOR ( 'NONE', #128, 1000.000000000000000 ) ;
#184 = ORIENTED_EDGE ( 'NONE', *, *, #207, .F. ) ;
#185 = DIRECTION ( 'NONE',  ( 0.0000000000000000000, 1.000000000000000000, 0.0000000000000000000 ) ) ;
#186 = EDGE_CURVE ( 'NONE', #248, #7, #161, .T. ) ;
#187 = CARTESIAN_POINT ( 'NONE',  ( 4.330127018922197202, 4.500000000000001776, 4.500000000000000000 ) ) ;
#188 = ORIENTED_EDGE ( 'NONE', *, *, #111, .F. ) ;
#189 = DIRECTION ( 'NONE',  ( 1.000000000000000000, 0.0000000000000000000, 0.0000000000000000000 ) ) ;
#190 = ORIENTED_EDGE ( 'NONE', *, *, #234, .T. ) ;
#191 = CARTESIAN_POINT ( 'NONE',  ( 4.330127018922197202, 4.500000000000001776, 4.500000000000000000 ) ) ;
#192 = DIRECTION ( 'NONE',  ( 1.000000000000000000, 0.0000000000000000000, 0.0000000000000000000 ) ) ;
#193 = UNCERTAINTY_MEASURE_WITH_UNIT (LENGTH_MEASURE( 1.000000000000000082E-05 ), #33, 'distance_accuracy_value', 'NONE');
#194 = DIRECTION ( 'NONE',  ( -0.0000000000000000000, 0.0000000000000000000, 1.000000000000000000 ) ) ;
#195 = AXIS2_PLACEMENT_3D ( 'NONE', #84, #215, #146 ) ;
#196 = ORIENTED_EDGE ( 'NONE', *, *, #263, .T. ) ;
#197 =( NAMED_UNIT ( * ) SI_UNIT ( $, .STERADIAN. ) SOLID_ANGLE_UNIT ( ) );
#198 = DIRECTION ( 'NONE',  ( 0.0000000000000000000, 1.000000000000000000, 0.0000000000000000000 ) ) ;
#199 = SHAPE_DEFINITION_REPRESENTATION ( #116, #167 ) ;
#200 = LINE ( 'NONE', #131, #36 ) ;
#201 = CARTESIAN_POINT ( 'NONE',  ( -5.000000000000000000, 9.453492714754178431E-22, 0.0000000000000000000 ) ) ;
#202 =( NAMED_UNIT ( * ) PLANE_ANGLE_UNIT ( ) SI_UNIT ( $, .RADIAN. ) );
#203 = AXIS2_PLACEMENT_3D ( 'NONE', #255, #22, #250 ) ;
#204 = VERTEX_POINT ( 'NONE', #252 ) ;
#205 = ORIENTED_EDGE ( 'NONE', *, *, #218, .F. ) ;
#206 = VECTOR ( 'NONE', #127, 1000.000000000000000 ) ;
#207 = EDGE_CURVE ( 'NONE', #204, #138, #231, .T. ) ;
#208 = LINE ( 'NONE', #27, #256 ) ;
#209 = DIRECTION ( 'NONE',  ( -1.239088197126290817E-16, -1.000000000000000000, 0.0000000000000000000 ) ) ;
#210 = ORIENTED_EDGE ( 'NONE', *, *, #152, .T. ) ;
#211 = CARTESIAN_POINT ( 'NONE',  ( 0.0000000000000000000, 7.000000000000000000, 4.500000000000000000 ) ) ;
#212 = DIRECTION ( 'NONE',  ( -0.0000000000000000000, -0.0000000000000000000, -1.000000000000000000 ) ) ;
#213 = CARTESIAN_POINT ( 'NONE',  ( 0.0000000000000000000, 0.0000000000000000000, 0.0000000000000000000 ) ) ;
#214 = EDGE_CURVE ( 'NONE', #226, #96, #41, .T. ) ;
#215 = DIRECTION ( 'NONE',  ( 0.0000000000000000000, 1.000000000000000000, 0.0000000000000000000 ) ) ;
#216 = CIRCLE ( 'NONE', #14, 5.000000000000000888 ) ;
#217 = ORIENTED_EDGE ( 'NONE', *, *, #186, .T. ) ;
#218 = EDGE_CURVE ( 'NONE', #134, #79, #220, .T. ) ;
#219 = ORIENTED_EDGE ( 'NONE', *, *, #247, .F. ) ;
#220 = LINE ( 'NONE', #105, #56 ) ;
#221 = CLOSED_SHELL ( 'NONE', ( #267, #17, #246, #222, #181, #162, #58, #142 ) ) ;
#222 = ADVANCED_FACE ( 'NONE', ( #145 ), #64, .F. ) ;
#223 = EDGE_CURVE ( 'NONE', #134, #226, #35, .T. ) ;
#224 = AXIS2_PLACEMENT_3D ( 'NONE', #52, #198, #72 ) ;
#225 = CIRCLE ( 'NONE', #150, 5.000000000000000888 ) ;
#226 = VERTEX_POINT ( 'NONE', #166 ) ;
#227 = PRESENTATION_STYLE_ASSIGNMENT (( #158 ) ) ;
#228 = PLANE ( 'NONE',  #195 ) ;
#229 = SURFACE_STYLE_USAGE ( .BOTH. , #164 ) ;
#230 = DIRECTION ( 'NONE',  ( -0.0000000000000000000, -0.0000000000000000000, -1.000000000000000000 ) ) ;
#231 = LINE ( 'NONE', #39, #175 ) ;
#232 = DIRECTION ( 'NONE',  ( -0.0000000000000000000, -0.0000000000000000000, -1.000000000000000000 ) ) ;
#233 = PRODUCT_CONTEXT ( 'NONE', #5, 'mechanical' ) ;
#234 = EDGE_CURVE ( 'NONE', #96, #138, #66, .T. ) ;
#235 =( LENGTH_UNIT ( ) NAMED_UNIT ( * ) SI_UNIT ( .MILLI., .METRE. ) );
#236 = DIRECTION ( 'NONE',  ( -0.0000000000000000000, 0.0000000000000000000, 1.000000000000000000 ) ) ;
#237 =( GEOMETRIC_REPRESENTATION_CONTEXT ( 3 ) GLOBAL_UNCERTAINTY_ASSIGNED_CONTEXT ( ( #268 ) ) GLOBAL_UNIT_ASSIGNED_CONTEXT ( ( #235, #74, #197 ) ) REPRESENTATION_CONTEXT ( 'NONE', 'WORKASPACE' ) );
#238 = VERTEX_POINT ( 'NONE', #46 ) ;
#239 = ORIENTED_EDGE ( 'NONE', *, *, #111, .T. ) ;
#240 = CARTESIAN_POINT ( 'NONE',  ( -5.000000000000000000, -6.195440985631454331E-16, 0.0000000000000000000 ) ) ;
#241 = AXIS2_PLACEMENT_3D ( 'NONE', #213, #194, #69 ) ;
#242 = VECTOR ( 'NONE', #230, 1000.000000000000000 ) ;
#243 = EDGE_LOOP ( 'NONE', ( #99, #102, #60, #44 ) ) ;
#244 = VERTEX_POINT ( 'NONE', #125 ) ;
#245 = ORIENTED_EDGE ( 'NONE', *, *, #214, .T. ) ;
#246 = ADVANCED_FACE ( 'NONE', ( #253 ), #43, .F. ) ;
#247 = EDGE_CURVE ( 'NONE', #132, #204, #122, .T. ) ;
#248 = VERTEX_POINT ( 'NONE', #187 ) ;
#249 = CARTESIAN_POINT ( 'NONE',  ( -4.330127018922195425, 4.500000000000000000, 4.500000000000000000 ) ) ;
#250 = DIRECTION ( 'NONE',  ( -1.000000000000000000, 0.0000000000000000000, 0.0000000000000000000 ) ) ;
#251 = ORIENTED_EDGE ( 'NONE', *, *, #98, .F. ) ;
#252 = CARTESIAN_POINT ( 'NONE',  ( 5.000000000000000888, 4.500000000000001776, 0.0000000000000000000 ) ) ;
#253 = FACE_OUTER_BOUND ( 'NONE', #243, .T. ) ;
#254 = DIRECTION ( 'NONE',  ( 1.239088197126290817E-16, -1.000000000000000000, 0.0000000000000000000 ) ) ;
#255 = CARTESIAN_POINT ( 'NONE',  ( 0.0000000000000000000, 7.000000000000000000, 4.500000000000000000 ) ) ;
#256 = VECTOR ( 'NONE', #3, 1000.000000000000000 ) ;
#257 = DIRECTION ( 'NONE',  ( 1.000000000000000000, 0.0000000000000000000, 0.0000000000000000000 ) ) ;
#258 =( NAMED_UNIT ( * ) SI_UNIT ( $, .STERADIAN. ) SOLID_ANGLE_UNIT ( ) );
#259 = CARTESIAN_POINT ( 'NONE',  ( 5.000000000000000888, 4.500000000000001776, 4.500000000000000000 ) ) ;
#260 = EDGE_LOOP ( 'NONE', ( #77, #264, #34, #118 ) ) ;
#261 = CARTESIAN_POINT ( 'NONE',  ( 4.330127018922197202, 4.500000000000001776, 0.0000000000000000000 ) ) ;
#262 = VECTOR ( 'NONE', #6, 1000.000000000000000 ) ;
#263 = EDGE_CURVE ( 'NONE', #248, #132, #15, .T. ) ;
#264 = ORIENTED_EDGE ( 'NONE', *, *, #26, .F. ) ;
#265 = ORIENTED_EDGE ( 'NONE', *, *, #126, .F. ) ;
#266 = EDGE_CURVE ( 'NONE', #79, #113, #171, .T. ) ;
#267 = ADVANCED_FACE ( 'NONE', ( #89 ), #97, .F. ) ;
#268 = UNCERTAINTY_MEASURE_WITH_UNIT (LENGTH_MEASURE( 1.000000000000000082E-05 ), #235, 'distance_accuracy_value', 'NONE');
#269 = MECHANICAL_DESIGN_GEOMETRIC_PRESENTATION_REPRESENTATION (  '', ( #30 ), #67 ) ;
#270 = DIRECTION ( 'NONE',  ( 1.000000000000000000, 0.0000000000000000000, 0.0000000000000000000 ) ) ;
ENDSEC;
END-ISO-10303-21;
