ISO-10303-21;
HEADER;
FILE_DESCRIPTION (( 'STEP AP214' ),
    '1' );
FILE_NAME ('UTCrawlV1-USI-014-entretoise.STEP',
    '2019-10-04T08:43:02',
    ( '' ),
    ( '' ),
    'SwSTEP 2.0',
    'SolidWorks 2018',
    '' );
FILE_SCHEMA (( 'AUTOMOTIVE_DESIGN' ));
ENDSEC;

DATA;
#1 =( GEOMETRIC_REPRESENTATION_CONTEXT ( 3 ) GLOBAL_UNCERTAINTY_ASSIGNED_CONTEXT ( ( #54 ) ) GLOBAL_UNIT_ASSIGNED_CONTEXT ( ( #78, #194, #27 ) ) REPRESENTATION_CONTEXT ( 'NONE', 'WORKASPACE' ) );
#2 = CIRCLE ( 'NONE', #40, 13.00000000000000178 ) ;
#3 = DIRECTION ( 'NONE',  ( 0.0000000000000000000, 0.0000000000000000000, 1.000000000000000000 ) ) ;
#4 =( NAMED_UNIT ( * ) SI_UNIT ( $, .STERADIAN. ) SOLID_ANGLE_UNIT ( ) );
#5 = ORIENTED_EDGE ( 'NONE', *, *, #176, .F. ) ;
#6 = VERTEX_POINT ( 'NONE', #41 ) ;
#7 =( LENGTH_UNIT ( ) NAMED_UNIT ( * ) SI_UNIT ( .MILLI., .METRE. ) );
#8 = DIRECTION ( 'NONE',  ( 1.000000000000000000, 0.0000000000000000000, -0.0000000000000000000 ) ) ;
#9 = ADVANCED_FACE ( 'NONE', ( #86 ), #79, .T. ) ;
#10 = PRESENTATION_LAYER_ASSIGNMENT (  '', '', ( #214 ) ) ;
#11 = ORIENTED_EDGE ( 'NONE', *, *, #38, .F. ) ;
#12 = DIRECTION ( 'NONE',  ( -1.000000000000000000, 0.0000000000000000000, 0.0000000000000000000 ) ) ;
#13 = PRESENTATION_STYLE_ASSIGNMENT (( #171 ) ) ;
#14 = CARTESIAN_POINT ( 'NONE',  ( 13.00000000000000178, 1.592040838891559293E-15, 2.000000000000000000 ) ) ;
#15 = CARTESIAN_POINT ( 'NONE',  ( 0.0000000000000000000, 0.0000000000000000000, 0.0000000000000000000 ) ) ;
#16 = CARTESIAN_POINT ( 'NONE',  ( 10.00000000000000000, 1.224646799147353256E-15, 0.0000000000000000000 ) ) ;
#17 = COLOUR_RGB ( '',0.7176470588235294157, 1.000000000000000000, 0.09019607843137254777 ) ;
#18 = VECTOR ( 'NONE', #99, 1000.000000000000000 ) ;
#19 = ORIENTED_EDGE ( 'NONE', *, *, #125, .F. ) ;
#20 = DIRECTION ( 'NONE',  ( -1.000000000000000000, 0.0000000000000000000, 0.0000000000000000000 ) ) ;
#21 = PRODUCT_CONTEXT ( 'NONE', #68, 'mechanical' ) ;
#22 = FACE_OUTER_BOUND ( 'NONE', #24, .T. ) ;
#23 = ORIENTED_EDGE ( 'NONE', *, *, #156, .F. ) ;
#24 = EDGE_LOOP ( 'NONE', ( #23, #189, #120, #95 ) ) ;
#25 = CARTESIAN_POINT ( 'NONE',  ( 0.0000000000000000000, 0.0000000000000000000, 2.000000000000000000 ) ) ;
#26 = FILL_AREA_STYLE_COLOUR ( '', #204 ) ;
#27 =( NAMED_UNIT ( * ) SI_UNIT ( $, .STERADIAN. ) SOLID_ANGLE_UNIT ( ) );
#28 = ORIENTED_EDGE ( 'NONE', *, *, #143, .F. ) ;
#29 = VERTEX_POINT ( 'NONE', #130 ) ;
#30 = CARTESIAN_POINT ( 'NONE',  ( 0.0000000000000000000, 0.0000000000000000000, 0.0000000000000000000 ) ) ;
#31 = MECHANICAL_DESIGN_GEOMETRIC_PRESENTATION_REPRESENTATION (  '', ( #214 ), #52 ) ;
#32 = PRODUCT_DEFINITION_CONTEXT ( 'detailed design', #175, 'design' ) ;
#33 = FILL_AREA_STYLE ('',( #44 ) ) ;
#34 = CARTESIAN_POINT ( 'NONE',  ( 0.0000000000000000000, 0.0000000000000000000, 2.000000000000000000 ) ) ;
#35 = CYLINDRICAL_SURFACE ( 'NONE', #154, 10.00000000000000000 ) ;
#36 = DIRECTION ( 'NONE',  ( 1.000000000000000000, 0.0000000000000000000, 0.0000000000000000000 ) ) ;
#37 = ORIENTED_EDGE ( 'NONE', *, *, #116, .T. ) ;
#38 = EDGE_CURVE ( 'NONE', #88, #115, #158, .T. ) ;
#39 = EDGE_LOOP ( 'NONE', ( #82, #144 ) ) ;
#40 = AXIS2_PLACEMENT_3D ( 'NONE', #70, #87, #72 ) ;
#41 = CARTESIAN_POINT ( 'NONE',  ( -13.00000000000000178, 0.0000000000000000000, 2.000000000000000000 ) ) ;
#42 = VECTOR ( 'NONE', #64, 1000.000000000000000 ) ;
#43 = EDGE_CURVE ( 'NONE', #29, #118, #113, .T. ) ;
#44 = FILL_AREA_STYLE_COLOUR ( '', #17 ) ;
#45 = PLANE ( 'NONE',  #166 ) ;
#46 = AXIS2_PLACEMENT_3D ( 'NONE', #147, #161, #182 ) ;
#47 = CIRCLE ( 'NONE', #186, 10.00000000000000000 ) ;
#48 = DIRECTION ( 'NONE',  ( 1.000000000000000000, 0.0000000000000000000, 0.0000000000000000000 ) ) ;
#49 = EDGE_LOOP ( 'NONE', ( #28, #134, #185, #19 ) ) ;
#50 = CARTESIAN_POINT ( 'NONE',  ( 0.0000000000000000000, 0.0000000000000000000, 2.000000000000000000 ) ) ;
#51 = VERTEX_POINT ( 'NONE', #162 ) ;
#52 =( GEOMETRIC_REPRESENTATION_CONTEXT ( 3 ) GLOBAL_UNCERTAINTY_ASSIGNED_CONTEXT ( ( #152 ) ) GLOBAL_UNIT_ASSIGNED_CONTEXT ( ( #7, #69, #4 ) ) REPRESENTATION_CONTEXT ( 'NONE', 'WORKASPACE' ) );
#53 = SURFACE_STYLE_USAGE ( .BOTH. , #96 ) ;
#54 = UNCERTAINTY_MEASURE_WITH_UNIT (LENGTH_MEASURE( 1.000000000000000082E-05 ), #78, 'distance_accuracy_value', 'NONE');
#55 = EDGE_CURVE ( 'NONE', #6, #56, #2, .T. ) ;
#56 = VERTEX_POINT ( 'NONE', #58 ) ;
#57 = AXIS2_PLACEMENT_3D ( 'NONE', #172, #100, #75 ) ;
#58 = CARTESIAN_POINT ( 'NONE',  ( 13.00000000000000178, 1.592040838891559293E-15, 2.000000000000000000 ) ) ;
#59 = FACE_OUTER_BOUND ( 'NONE', #110, .T. ) ;
#60 = DIRECTION ( 'NONE',  ( 1.000000000000000000, 0.0000000000000000000, 0.0000000000000000000 ) ) ;
#61 = CARTESIAN_POINT ( 'NONE',  ( -13.00000000000000178, 0.0000000000000000000, 2.000000000000000000 ) ) ;
#62 = FACE_OUTER_BOUND ( 'NONE', #39, .T. ) ;
#63 = ORIENTED_EDGE ( 'NONE', *, *, #143, .T. ) ;
#64 = DIRECTION ( 'NONE',  ( -0.0000000000000000000, -0.0000000000000000000, -1.000000000000000000 ) ) ;
#65 = AXIS2_PLACEMENT_3D ( 'NONE', #25, #210, #60 ) ;
#66 = DIRECTION ( 'NONE',  ( 1.000000000000000000, 0.0000000000000000000, 0.0000000000000000000 ) ) ;
#67 = FACE_BOUND ( 'NONE', #112, .T. ) ;
#68 = APPLICATION_CONTEXT ( 'automotive_design' ) ;
#69 =( NAMED_UNIT ( * ) PLANE_ANGLE_UNIT ( ) SI_UNIT ( $, .RADIAN. ) );
#70 = CARTESIAN_POINT ( 'NONE',  ( 0.0000000000000000000, 0.0000000000000000000, 2.000000000000000000 ) ) ;
#71 = MECHANICAL_DESIGN_GEOMETRIC_PRESENTATION_REPRESENTATION (  '', ( #170 ), #1 ) ;
#72 = DIRECTION ( 'NONE',  ( 1.000000000000000000, 0.0000000000000000000, 0.0000000000000000000 ) ) ;
#73 = AXIS2_PLACEMENT_3D ( 'NONE', #117, #77, #48 ) ;
#74 = DIRECTION ( 'NONE',  ( -1.000000000000000000, 0.0000000000000000000, 0.0000000000000000000 ) ) ;
#75 = DIRECTION ( 'NONE',  ( 1.000000000000000000, 0.0000000000000000000, 0.0000000000000000000 ) ) ;
#76 = EDGE_CURVE ( 'NONE', #193, #51, #47, .T. ) ;
#77 = DIRECTION ( 'NONE',  ( 0.0000000000000000000, 0.0000000000000000000, 1.000000000000000000 ) ) ;
#78 =( LENGTH_UNIT ( ) NAMED_UNIT ( * ) SI_UNIT ( .MILLI., .METRE. ) );
#79 = CYLINDRICAL_SURFACE ( 'NONE', #136, 13.00000000000000178 ) ;
#80 = DIRECTION ( 'NONE',  ( -0.0000000000000000000, -0.0000000000000000000, -1.000000000000000000 ) ) ;
#81 =( NAMED_UNIT ( * ) PLANE_ANGLE_UNIT ( ) SI_UNIT ( $, .RADIAN. ) );
#82 = ORIENTED_EDGE ( 'NONE', *, *, #142, .F. ) ;
#83 = AXIS2_PLACEMENT_3D ( 'NONE', #50, #141, #8 ) ;
#84 = CARTESIAN_POINT ( 'NONE',  ( 0.0000000000000000000, 0.0000000000000000000, 0.0000000000000000000 ) ) ;
#85 = CYLINDRICAL_SURFACE ( 'NONE', #157, 10.00000000000000000 ) ;
#86 = FACE_OUTER_BOUND ( 'NONE', #49, .T. ) ;
#87 = DIRECTION ( 'NONE',  ( 0.0000000000000000000, 0.0000000000000000000, 1.000000000000000000 ) ) ;
#88 = VERTEX_POINT ( 'NONE', #206 ) ;
#89 = ORIENTED_EDGE ( 'NONE', *, *, #116, .F. ) ;
#90 = CIRCLE ( 'NONE', #73, 10.00000000000000000 ) ;
#91 = DIRECTION ( 'NONE',  ( 1.000000000000000000, 0.0000000000000000000, 0.0000000000000000000 ) ) ;
#92 = CARTESIAN_POINT ( 'NONE',  ( 0.0000000000000000000, 0.0000000000000000000, 2.000000000000000000 ) ) ;
#93 = EDGE_LOOP ( 'NONE', ( #151, #63 ) ) ;
#94 = CARTESIAN_POINT ( 'NONE',  ( -13.00000000000000178, 0.0000000000000000000, 0.0000000000000000000 ) ) ;
#95 = ORIENTED_EDGE ( 'NONE', *, *, #76, .F. ) ;
#96 = SURFACE_SIDE_STYLE ('',( #104 ) ) ;
#97 =( NAMED_UNIT ( * ) SI_UNIT ( $, .STERADIAN. ) SOLID_ANGLE_UNIT ( ) );
#98 = LINE ( 'NONE', #187, #167 ) ;
#99 = DIRECTION ( 'NONE',  ( -0.0000000000000000000, -0.0000000000000000000, -1.000000000000000000 ) ) ;
#100 = DIRECTION ( 'NONE',  ( 0.0000000000000000000, 0.0000000000000000000, 1.000000000000000000 ) ) ;
#101 = CARTESIAN_POINT ( 'NONE',  ( -10.00000000000000000, 0.0000000000000000000, 2.000000000000000000 ) ) ;
#102 = ORIENTED_EDGE ( 'NONE', *, *, #125, .T. ) ;
#103 = EDGE_CURVE ( 'NONE', #51, #193, #90, .T. ) ;
#104 = SURFACE_STYLE_FILL_AREA ( #202 ) ;
#105 = EDGE_CURVE ( 'NONE', #56, #29, #192, .T. ) ;
#106 = CARTESIAN_POINT ( 'NONE',  ( 0.0000000000000000000, 0.0000000000000000000, 2.000000000000000000 ) ) ;
#107 = DIRECTION ( 'NONE',  ( 0.0000000000000000000, 0.0000000000000000000, 1.000000000000000000 ) ) ;
#108 = LINE ( 'NONE', #61, #163 ) ;
#109 = CARTESIAN_POINT ( 'NONE',  ( -10.00000000000000000, 0.0000000000000000000, 2.000000000000000000 ) ) ;
#110 = EDGE_LOOP ( 'NONE', ( #37, #146, #200, #5 ) ) ;
#111 = FACE_BOUND ( 'NONE', #126, .T. ) ;
#112 = EDGE_LOOP ( 'NONE', ( #208, #135 ) ) ;
#113 = CIRCLE ( 'NONE', #46, 13.00000000000000178 ) ;
#114 = AXIS2_PLACEMENT_3D ( 'NONE', #123, #107, #91 ) ;
#115 = VERTEX_POINT ( 'NONE', #109 ) ;
#116 = EDGE_CURVE ( 'NONE', #115, #88, #169, .T. ) ;
#117 = CARTESIAN_POINT ( 'NONE',  ( 0.0000000000000000000, 0.0000000000000000000, 0.0000000000000000000 ) ) ;
#118 = VERTEX_POINT ( 'NONE', #94 ) ;
#119 = DIRECTION ( 'NONE',  ( -0.0000000000000000000, -0.0000000000000000000, -1.000000000000000000 ) ) ;
#120 = ORIENTED_EDGE ( 'NONE', *, *, #176, .T. ) ;
#121 = SHAPE_DEFINITION_REPRESENTATION ( #180, #164 ) ;
#122 = FACE_OUTER_BOUND ( 'NONE', #149, .T. ) ;
#123 = CARTESIAN_POINT ( 'NONE',  ( 0.0000000000000000000, 0.0000000000000000000, 2.000000000000000000 ) ) ;
#124 = APPLICATION_PROTOCOL_DEFINITION ( 'draft international standard', 'automotive_design', 1998, #175 ) ;
#125 = EDGE_CURVE ( 'NONE', #6, #118, #108, .T. ) ;
#126 = EDGE_LOOP ( 'NONE', ( #89, #11 ) ) ;
#127 = ADVANCED_FACE ( 'NONE', ( #122 ), #173, .T. ) ;
#128 = CARTESIAN_POINT ( 'NONE',  ( 0.0000000000000000000, 0.0000000000000000000, 2.000000000000000000 ) ) ;
#129 = ADVANCED_FACE ( 'NONE', ( #62, #67 ), #45, .F. ) ;
#130 = CARTESIAN_POINT ( 'NONE',  ( 13.00000000000000178, 1.592040838891559293E-15, 0.0000000000000000000 ) ) ;
#131 = PLANE ( 'NONE',  #83 ) ;
#132 = DIRECTION ( 'NONE',  ( 1.000000000000000000, 0.0000000000000000000, 0.0000000000000000000 ) ) ;
#133 = DIRECTION ( 'NONE',  ( -0.0000000000000000000, -0.0000000000000000000, -1.000000000000000000 ) ) ;
#134 = ORIENTED_EDGE ( 'NONE', *, *, #105, .T. ) ;
#135 = ORIENTED_EDGE ( 'NONE', *, *, #76, .T. ) ;
#136 = AXIS2_PLACEMENT_3D ( 'NONE', #128, #211, #12 ) ;
#137 = DIRECTION ( 'NONE',  ( -0.0000000000000000000, -0.0000000000000000000, -1.000000000000000000 ) ) ;
#138 = DIRECTION ( 'NONE',  ( 0.0000000000000000000, 0.0000000000000000000, 1.000000000000000000 ) ) ;
#139 = FACE_OUTER_BOUND ( 'NONE', #93, .T. ) ;
#140 = ORIENTED_EDGE ( 'NONE', *, *, #55, .F. ) ;
#141 = DIRECTION ( 'NONE',  ( 0.0000000000000000000, 0.0000000000000000000, 1.000000000000000000 ) ) ;
#142 = EDGE_CURVE ( 'NONE', #118, #29, #188, .T. ) ;
#143 = EDGE_CURVE ( 'NONE', #56, #6, #205, .T. ) ;
#144 = ORIENTED_EDGE ( 'NONE', *, *, #43, .F. ) ;
#145 = ADVANCED_FACE ( 'NONE', ( #22 ), #35, .F. ) ;
#146 = ORIENTED_EDGE ( 'NONE', *, *, #156, .T. ) ;
#147 = CARTESIAN_POINT ( 'NONE',  ( 0.0000000000000000000, 0.0000000000000000000, 0.0000000000000000000 ) ) ;
#148 = AXIS2_PLACEMENT_3D ( 'NONE', #34, #138, #132 ) ;
#149 = EDGE_LOOP ( 'NONE', ( #178, #140, #102, #201 ) ) ;
#150 = DIRECTION ( 'NONE',  ( 1.000000000000000000, 0.0000000000000000000, -0.0000000000000000000 ) ) ;
#151 = ORIENTED_EDGE ( 'NONE', *, *, #55, .T. ) ;
#152 = UNCERTAINTY_MEASURE_WITH_UNIT (LENGTH_MEASURE( 1.000000000000000082E-05 ), #7, 'distance_accuracy_value', 'NONE');
#153 = SURFACE_SIDE_STYLE ('',( #196 ) ) ;
#154 = AXIS2_PLACEMENT_3D ( 'NONE', #106, #80, #20 ) ;
#155 = DIRECTION ( 'NONE',  ( 0.0000000000000000000, 0.0000000000000000000, 1.000000000000000000 ) ) ;
#156 = EDGE_CURVE ( 'NONE', #88, #193, #98, .T. ) ;
#157 = AXIS2_PLACEMENT_3D ( 'NONE', #92, #213, #195 ) ;
#158 = CIRCLE ( 'NONE', #65, 10.00000000000000000 ) ;
#159 = ADVANCED_FACE ( 'NONE', ( #59 ), #85, .F. ) ;
#160 = AXIS2_PLACEMENT_3D ( 'NONE', #84, #155, #36 ) ;
#161 = DIRECTION ( 'NONE',  ( 0.0000000000000000000, 0.0000000000000000000, 1.000000000000000000 ) ) ;
#162 = CARTESIAN_POINT ( 'NONE',  ( -10.00000000000000000, 0.0000000000000000000, 0.0000000000000000000 ) ) ;
#163 = VECTOR ( 'NONE', #137, 1000.000000000000000 ) ;
#164 = ADVANCED_BREP_SHAPE_REPRESENTATION ( 'UTCrawlV1-USI-014-entretoise', ( #184, #160 ), #198 ) ;
#165 = DIRECTION ( 'NONE',  ( 0.0000000000000000000, 0.0000000000000000000, 1.000000000000000000 ) ) ;
#166 = AXIS2_PLACEMENT_3D ( 'NONE', #15, #3, #150 ) ;
#167 = VECTOR ( 'NONE', #119, 1000.000000000000000 ) ;
#168 = CLOSED_SHELL ( 'NONE', ( #159, #9, #207, #129, #127, #145 ) ) ;
#169 = CIRCLE ( 'NONE', #148, 10.00000000000000000 ) ;
#170 = STYLED_ITEM ( 'NONE', ( #13 ), #184 ) ;
#171 = SURFACE_STYLE_USAGE ( .BOTH. , #153 ) ;
#172 = CARTESIAN_POINT ( 'NONE',  ( 0.0000000000000000000, 0.0000000000000000000, 0.0000000000000000000 ) ) ;
#173 = CYLINDRICAL_SURFACE ( 'NONE', #181, 13.00000000000000178 ) ;
#174 = PRODUCT ( 'UTCrawlV1-USI-014-entretoise', 'UTCrawlV1-USI-014-entretoise', '', ( #21 ) ) ;
#175 = APPLICATION_CONTEXT ( 'automotive_design' ) ;
#176 = EDGE_CURVE ( 'NONE', #115, #51, #177, .T. ) ;
#177 = LINE ( 'NONE', #101, #42 ) ;
#178 = ORIENTED_EDGE ( 'NONE', *, *, #105, .F. ) ;
#179 = UNCERTAINTY_MEASURE_WITH_UNIT (LENGTH_MEASURE( 1.000000000000000082E-05 ), #199, 'distance_accuracy_value', 'NONE');
#180 = PRODUCT_DEFINITION_SHAPE ( 'NONE', 'NONE',  #190 ) ;
#181 = AXIS2_PLACEMENT_3D ( 'NONE', #212, #133, #74 ) ;
#182 = DIRECTION ( 'NONE',  ( 1.000000000000000000, 0.0000000000000000000, 0.0000000000000000000 ) ) ;
#183 = PRODUCT_RELATED_PRODUCT_CATEGORY ( 'part', '', ( #174 ) ) ;
#184 = MANIFOLD_SOLID_BREP ( 'Boss.-Extru.1', #168 ) ;
#185 = ORIENTED_EDGE ( 'NONE', *, *, #43, .T. ) ;
#186 = AXIS2_PLACEMENT_3D ( 'NONE', #30, #165, #66 ) ;
#187 = CARTESIAN_POINT ( 'NONE',  ( 10.00000000000000000, 1.224646799147353256E-15, 2.000000000000000000 ) ) ;
#188 = CIRCLE ( 'NONE', #57, 13.00000000000000178 ) ;
#189 = ORIENTED_EDGE ( 'NONE', *, *, #38, .T. ) ;
#190 = PRODUCT_DEFINITION ( 'UNKNOWN', '', #209, #32 ) ;
#191 = PRESENTATION_STYLE_ASSIGNMENT (( #53 ) ) ;
#192 = LINE ( 'NONE', #14, #18 ) ;
#193 = VERTEX_POINT ( 'NONE', #16 ) ;
#194 =( NAMED_UNIT ( * ) PLANE_ANGLE_UNIT ( ) SI_UNIT ( $, .RADIAN. ) );
#195 = DIRECTION ( 'NONE',  ( -1.000000000000000000, 0.0000000000000000000, 0.0000000000000000000 ) ) ;
#196 = SURFACE_STYLE_FILL_AREA ( #33 ) ;
#197 = APPLICATION_PROTOCOL_DEFINITION ( 'draft international standard', 'automotive_design', 1998, #68 ) ;
#198 =( GEOMETRIC_REPRESENTATION_CONTEXT ( 3 ) GLOBAL_UNCERTAINTY_ASSIGNED_CONTEXT ( ( #179 ) ) GLOBAL_UNIT_ASSIGNED_CONTEXT ( ( #199, #81, #97 ) ) REPRESENTATION_CONTEXT ( 'NONE', 'WORKASPACE' ) );
#199 =( LENGTH_UNIT ( ) NAMED_UNIT ( * ) SI_UNIT ( .MILLI., .METRE. ) );
#200 = ORIENTED_EDGE ( 'NONE', *, *, #103, .F. ) ;
#201 = ORIENTED_EDGE ( 'NONE', *, *, #142, .T. ) ;
#202 = FILL_AREA_STYLE ('',( #26 ) ) ;
#203 = PRESENTATION_LAYER_ASSIGNMENT (  '', '', ( #170 ) ) ;
#204 = COLOUR_RGB ( '',0.7176470588235294157, 1.000000000000000000, 0.09019607843137254777 ) ;
#205 = CIRCLE ( 'NONE', #114, 13.00000000000000178 ) ;
#206 = CARTESIAN_POINT ( 'NONE',  ( 10.00000000000000000, 1.224646799147353256E-15, 2.000000000000000000 ) ) ;
#207 = ADVANCED_FACE ( 'NONE', ( #139, #111 ), #131, .T. ) ;
#208 = ORIENTED_EDGE ( 'NONE', *, *, #103, .T. ) ;
#209 = PRODUCT_DEFINITION_FORMATION_WITH_SPECIFIED_SOURCE ( 'ANY', '', #174, .NOT_KNOWN. ) ;
#210 = DIRECTION ( 'NONE',  ( 0.0000000000000000000, 0.0000000000000000000, 1.000000000000000000 ) ) ;
#211 = DIRECTION ( 'NONE',  ( -0.0000000000000000000, -0.0000000000000000000, -1.000000000000000000 ) ) ;
#212 = CARTESIAN_POINT ( 'NONE',  ( 0.0000000000000000000, 0.0000000000000000000, 2.000000000000000000 ) ) ;
#213 = DIRECTION ( 'NONE',  ( -0.0000000000000000000, -0.0000000000000000000, -1.000000000000000000 ) ) ;
#214 = STYLED_ITEM ( 'NONE', ( #191 ), #164 ) ;
ENDSEC;
END-ISO-10303-21;
