ISO-10303-21;
HEADER;
FILE_DESCRIPTION (( 'STEP AP214' ),
    '1' );
FILE_NAME ('biellette 20x10.STEP',
    '2019-10-20T13:12:42',
    ( 'Olivier' ),
    ( 'Microsoft' ),
    'SwSTEP 2.0',
    'SolidWorks 2010',
    '' );
FILE_SCHEMA (( 'AUTOMOTIVE_DESIGN' ));
ENDSEC;

DATA;
#1 = EDGE_CURVE ( 'NONE', #165, #121, #97, .T. ) ;
#2 = EDGE_CURVE ( 'NONE', #167, #141, #28, .T. ) ;
#3 = ADVANCED_BREP_SHAPE_REPRESENTATION ( 'biellette 20x10', ( #109, #255 ), #31 ) ;
#4 = UNCERTAINTY_MEASURE_WITH_UNIT (LENGTH_MEASURE( 1.000000000000000100E-005 ), #197, 'distance_accuracy_value', 'NONE');
#5 = UNCERTAINTY_MEASURE_WITH_UNIT (LENGTH_MEASURE( 1.000000000000000100E-005 ), #272, 'distance_accuracy_value', 'NONE');
#6 = CIRCLE ( 'NONE', #251, 4.000000000000003600 ) ;
#7 = VECTOR ( 'NONE', #206, 1000.000000000000000 ) ;
#8 = CIRCLE ( 'NONE', #247, 10.00000000000000200 ) ;
#9 = EDGE_LOOP ( 'NONE', ( #86, #85 ) ) ;
#10 = LINE ( 'NONE', #232, #26 ) ;
#11 = EDGE_LOOP ( 'NONE', ( #91, #90 ) ) ;
#12 = ORIENTED_EDGE ( 'NONE', *, *, #236, .F. ) ;
#13 = ORIENTED_EDGE ( 'NONE', *, *, #260, .F. ) ;
#14 = EDGE_LOOP ( 'NONE', ( #12, #99, #101, #102 ) ) ;
#15 = ORIENTED_EDGE ( 'NONE', *, *, #236, .T. ) ;
#16 = ORIENTED_EDGE ( 'NONE', *, *, #234, .F. ) ;
#17 = ORIENTED_EDGE ( 'NONE', *, *, #1, .T. ) ;
#18 = EDGE_LOOP ( 'NONE', ( #104, #15, #16, #96 ) ) ;
#19 = LINE ( 'NONE', #138, #100 ) ;
#20 = COLOUR_RGB ( '',0.7921568627450980000, 0.8196078431372548800, 0.9333333333333333500 ) ;
#21 = EDGE_LOOP ( 'NONE', ( #93, #89, #88, #87 ) ) ;
#22 = PRODUCT ( 'biellette 20x10', 'biellette 20x10', '', ( #264 ) ) ;
#23 = EDGE_LOOP ( 'NONE', ( #80, #79, #78, #76 ) ) ;
#24 = EDGE_LOOP ( 'NONE', ( #77, #17, #95, #92 ) ) ;
#25 = CLOSED_SHELL ( 'NONE', ( #179, #183, #176, #178, #177, #181, #182, #180 ) ) ;
#26 = VECTOR ( 'NONE', #217, 1000.000000000000000 ) ;
#27 = SHAPE_DEFINITION_REPRESENTATION ( #112, #3 ) ;
#28 = LINE ( 'NONE', #145, #36 ) ;
#29 = PRESENTATION_STYLE_ASSIGNMENT (( #273 ) ) ;
#30 = VECTOR ( 'NONE', #218, 1000.000000000000000 ) ;
#31 =( GEOMETRIC_REPRESENTATION_CONTEXT ( 3 ) GLOBAL_UNCERTAINTY_ASSIGNED_CONTEXT ( ( #4 ) ) GLOBAL_UNIT_ASSIGNED_CONTEXT ( ( #197, #186, #192 ) ) REPRESENTATION_CONTEXT ( 'NONE', 'WORKASPACE' ) );
#32 = SURFACE_STYLE_FILL_AREA ( #276 ) ;
#33 = CIRCLE ( 'NONE', #252, 10.00000000000000200 ) ;
#34 = VECTOR ( 'NONE', #203, 1000.000000000000000 ) ;
#35 =( GEOMETRIC_REPRESENTATION_CONTEXT ( 3 ) GLOBAL_UNCERTAINTY_ASSIGNED_CONTEXT ( ( #5 ) ) GLOBAL_UNIT_ASSIGNED_CONTEXT ( ( #272, #271, #270 ) ) REPRESENTATION_CONTEXT ( 'NONE', 'WORKASPACE' ) );
#36 = VECTOR ( 'NONE', #175, 1000.000000000000000 ) ;
#37 = LINE ( 'NONE', #198, #7 ) ;
#38 = VECTOR ( 'NONE', #214, 1000.000000000000000 ) ;
#39 = LINE ( 'NONE', #208, #34 ) ;
#40 = LINE ( 'NONE', #224, #41 ) ;
#41 = VECTOR ( 'NONE', #223, 1000.000000000000000 ) ;
#42 = CYLINDRICAL_SURFACE ( 'NONE', #114, 10.00000000000000000 ) ;
#43 = FACE_BOUND ( 'NONE', #11, .T. ) ;
#44 = LINE ( 'NONE', #194, #66 ) ;
#45 = FACE_OUTER_BOUND ( 'NONE', #24, .T. ) ;
#46 = FACE_OUTER_BOUND ( 'NONE', #108, .T. ) ;
#47 = FACE_OUTER_BOUND ( 'NONE', #103, .T. ) ;
#48 = FACE_OUTER_BOUND ( 'NONE', #14, .T. ) ;
#49 = LINE ( 'NONE', #216, #38 ) ;
#50 = ORIENTED_EDGE ( 'NONE', *, *, #233, .F. ) ;
#51 = FACE_OUTER_BOUND ( 'NONE', #107, .T. ) ;
#52 = ORIENTED_EDGE ( 'NONE', *, *, #261, .T. ) ;
#53 = CIRCLE ( 'NONE', #248, 4.000000000000003600 ) ;
#54 =( GEOMETRIC_REPRESENTATION_CONTEXT ( 3 ) GLOBAL_UNCERTAINTY_ASSIGNED_CONTEXT ( ( #110 ) ) GLOBAL_UNIT_ASSIGNED_CONTEXT ( ( #131, #128, #147 ) ) REPRESENTATION_CONTEXT ( 'NONE', 'WORKASPACE' ) );
#55 = VECTOR ( 'NONE', #137, 1000.000000000000000 ) ;
#56 = FACE_OUTER_BOUND ( 'NONE', #23, .T. ) ;
#57 = CIRCLE ( 'NONE', #241, 4.000000000000003600 ) ;
#58 = LINE ( 'NONE', #129, #55 ) ;
#59 = CIRCLE ( 'NONE', #242, 4.000000000000003600 ) ;
#60 = FACE_BOUND ( 'NONE', #9, .T. ) ;
#61 = CYLINDRICAL_SURFACE ( 'NONE', #277, 4.000000000000003600 ) ;
#62 = FACE_OUTER_BOUND ( 'NONE', #18, .T. ) ;
#63 = LINE ( 'NONE', #222, #64 ) ;
#64 = VECTOR ( 'NONE', #230, 1000.000000000000000 ) ;
#65 = FACE_OUTER_BOUND ( 'NONE', #21, .T. ) ;
#66 = VECTOR ( 'NONE', #196, 1000.000000000000000 ) ;
#67 = STYLED_ITEM ( 'NONE', ( #68 ), #109 ) ;
#68 = PRESENTATION_STYLE_ASSIGNMENT (( #133 ) ) ;
#69 = SURFACE_STYLE_FILL_AREA ( #142 ) ;
#70 = COLOUR_RGB ( '',0.7921568627450980000, 0.8196078431372548800, 0.9333333333333333500 ) ;
#71 = CYLINDRICAL_SURFACE ( 'NONE', #113, 4.000000000000003600 ) ;
#72 = ORIENTED_EDGE ( 'NONE', *, *, #115, .T. ) ;
#73 = ORIENTED_EDGE ( 'NONE', *, *, #259, .T. ) ;
#74 = ORIENTED_EDGE ( 'NONE', *, *, #237, .F. ) ;
#75 = ORIENTED_EDGE ( 'NONE', *, *, #2, .F. ) ;
#76 = ORIENTED_EDGE ( 'NONE', *, *, #118, .T. ) ;
#77 = ORIENTED_EDGE ( 'NONE', *, *, #278, .T. ) ;
#78 = ORIENTED_EDGE ( 'NONE', *, *, #1, .F. ) ;
#79 = ORIENTED_EDGE ( 'NONE', *, *, #115, .F. ) ;
#80 = ORIENTED_EDGE ( 'NONE', *, *, #258, .T. ) ;
#81 = ORIENTED_EDGE ( 'NONE', *, *, #118, .F. ) ;
#82 = ORIENTED_EDGE ( 'NONE', *, *, #233, .T. ) ;
#83 = ORIENTED_EDGE ( 'NONE', *, *, #278, .F. ) ;
#84 = ORIENTED_EDGE ( 'NONE', *, *, #235, .T. ) ;
#85 = ORIENTED_EDGE ( 'NONE', *, *, #116, .T. ) ;
#86 = ORIENTED_EDGE ( 'NONE', *, *, #234, .T. ) ;
#87 = ORIENTED_EDGE ( 'NONE', *, *, #258, .F. ) ;
#88 = ORIENTED_EDGE ( 'NONE', *, *, #259, .F. ) ;
#89 = ORIENTED_EDGE ( 'NONE', *, *, #261, .F. ) ;
#90 = ORIENTED_EDGE ( 'NONE', *, *, #117, .F. ) ;
#91 = ORIENTED_EDGE ( 'NONE', *, *, #238, .F. ) ;
#92 = ORIENTED_EDGE ( 'NONE', *, *, #260, .T. ) ;
#93 = ORIENTED_EDGE ( 'NONE', *, *, #235, .F. ) ;
#94 = ORIENTED_EDGE ( 'NONE', *, *, #2, .T. ) ;
#95 = ORIENTED_EDGE ( 'NONE', *, *, #237, .T. ) ;
#96 = ORIENTED_EDGE ( 'NONE', *, *, #184, .F. ) ;
#97 = LINE ( 'NONE', #126, #106 ) ;
#98 = LINE ( 'NONE', #207, #30 ) ;
#99 = ORIENTED_EDGE ( 'NONE', *, *, #117, .T. ) ;
#100 = VECTOR ( 'NONE', #152, 1000.000000000000000 ) ;
#101 = ORIENTED_EDGE ( 'NONE', *, *, #184, .T. ) ;
#102 = ORIENTED_EDGE ( 'NONE', *, *, #116, .F. ) ;
#103 = EDGE_LOOP ( 'NONE', ( #73, #75, #74, #72 ) ) ;
#104 = ORIENTED_EDGE ( 'NONE', *, *, #238, .T. ) ;
#105 = STYLED_ITEM ( 'NONE', ( #29 ), #3 ) ;
#106 = VECTOR ( 'NONE', #173, 1000.000000000000000 ) ;
#107 = EDGE_LOOP ( 'NONE', ( #84, #81, #83, #82 ) ) ;
#108 = EDGE_LOOP ( 'NONE', ( #52, #50, #13, #94 ) ) ;
#109 = MANIFOLD_SOLID_BREP ( 'Boss.-Extru.1', #25 ) ;
#110 = UNCERTAINTY_MEASURE_WITH_UNIT (LENGTH_MEASURE( 1.000000000000000100E-005 ), #131, 'distance_accuracy_value', 'NONE');
#111 = PRODUCT_DEFINITION_CONTEXT ( 'detailed design', #263, 'design' ) ;
#112 = PRODUCT_DEFINITION_SHAPE ( 'NONE', 'NONE',  #245 ) ;
#113 = AXIS2_PLACEMENT_3D ( 'NONE', #185, #200, #205 ) ;
#114 = AXIS2_PLACEMENT_3D ( 'NONE', #188, #209, #195 ) ;
#115 = EDGE_CURVE ( 'NONE', #121, #120, #19, .T. ) ;
#116 = EDGE_CURVE ( 'NONE', #122, #159, #57, .T. ) ;
#117 = EDGE_CURVE ( 'NONE', #164, #156, #59, .T. ) ;
#118 = EDGE_CURVE ( 'NONE', #165, #163, #58, .T. ) ;
#119 = FILL_AREA_STYLE_COLOUR ( '', #70 ) ;
#120 = VERTEX_POINT ( 'NONE', #139 ) ;
#121 = VERTEX_POINT ( 'NONE', #161 ) ;
#122 = VERTEX_POINT ( 'NONE', #130 ) ;
#123 = DIRECTION ( 'NONE',  ( 0.0000000000000000000, 0.0000000000000000000, 1.000000000000000000 ) ) ;
#124 = PLANE ( 'NONE',  #243 ) ;
#125 = CARTESIAN_POINT ( 'NONE',  ( 9.999999999999994700, 0.0000000000000000000, 10.00000000000000000 ) ) ;
#126 = CARTESIAN_POINT ( 'NONE',  ( 9.999999999999994700, 0.0000000000000000000, 10.00000000000000000 ) ) ;
#127 = CARTESIAN_POINT ( 'NONE',  ( 9.999999999999994700, -10.00000000000000000, 0.0000000000000000000 ) ) ;
#128 =( NAMED_UNIT ( * ) PLANE_ANGLE_UNIT ( ) SI_UNIT ( $, .RADIAN. ) );
#129 = CARTESIAN_POINT ( 'NONE',  ( 95.00000000000000000, 0.0000000000000000000, 10.00000000000000000 ) ) ;
#130 = CARTESIAN_POINT ( 'NONE',  ( 89.00000000000001400, -10.00000000000000000, 0.0000000000000000000 ) ) ;
#131 =( LENGTH_UNIT ( ) NAMED_UNIT ( * ) SI_UNIT ( .MILLI., .METRE. ) );
#132 = PLANE ( 'NONE',  #249 ) ;
#133 = SURFACE_STYLE_USAGE ( .BOTH. , #155 ) ;
#134 = CARTESIAN_POINT ( 'NONE',  ( 85.00000000000000000, -10.00000000000000000, 0.0000000000000000000 ) ) ;
#135 = PLANE ( 'NONE',  #244 ) ;
#136 = PLANE ( 'NONE',  #246 ) ;
#137 = DIRECTION ( 'NONE',  ( -0.0000000000000000000, -0.0000000000000000000, -1.000000000000000000 ) ) ;
#138 = CARTESIAN_POINT ( 'NONE',  ( 9.999999999999994700, 0.0000000000000000000, 10.00000000000000000 ) ) ;
#139 = CARTESIAN_POINT ( 'NONE',  ( 9.999999999999994700, 0.0000000000000000000, 0.0000000000000000000 ) ) ;
#140 = DIRECTION ( 'NONE',  ( 0.0000000000000000000, -0.0000000000000000000, -1.000000000000000000 ) ) ;
#141 = VERTEX_POINT ( 'NONE', #158 ) ;
#142 = FILL_AREA_STYLE ('',( #119 ) ) ;
#143 = CARTESIAN_POINT ( 'NONE',  ( 81.00000000000000000, -10.00000000000000000, 10.00000000000000000 ) ) ;
#144 = DIRECTION ( 'NONE',  ( 0.0000000000000000000, 0.0000000000000000000, 1.000000000000000000 ) ) ;
#145 = CARTESIAN_POINT ( 'NONE',  ( 9.999999999999994700, -20.00000000000000000, 10.00000000000000000 ) ) ;
#146 = CARTESIAN_POINT ( 'NONE',  ( 95.00000000000000000, -20.00000000000000000, 0.0000000000000000000 ) ) ;
#147 =( NAMED_UNIT ( * ) SI_UNIT ( $, .STERADIAN. ) SOLID_ANGLE_UNIT ( ) );
#148 = VERTEX_POINT ( 'NONE', #146 ) ;
#149 = DIRECTION ( 'NONE',  ( 1.000000000000000000, 0.0000000000000000000, 0.0000000000000000000 ) ) ;
#150 = CARTESIAN_POINT ( 'NONE',  ( 95.00000000000000000, 0.0000000000000000000, 10.00000000000000000 ) ) ;
#151 = CARTESIAN_POINT ( 'NONE',  ( 95.00000000000000000, 0.0000000000000000000, 0.0000000000000000000 ) ) ;
#152 = DIRECTION ( 'NONE',  ( -0.0000000000000000000, -0.0000000000000000000, -1.000000000000000000 ) ) ;
#153 = VERTEX_POINT ( 'NONE', #171 ) ;
#154 = DIRECTION ( 'NONE',  ( 1.000000000000000000, 0.0000000000000000000, -0.0000000000000000000 ) ) ;
#155 = SURFACE_SIDE_STYLE ('',( #69 ) ) ;
#156 = VERTEX_POINT ( 'NONE', #143 ) ;
#157 = CARTESIAN_POINT ( 'NONE',  ( 81.00000000000000000, -10.00000000000000000, 0.0000000000000000000 ) ) ;
#158 = CARTESIAN_POINT ( 'NONE',  ( 9.999999999999994700, -20.00000000000000000, 0.0000000000000000000 ) ) ;
#159 = VERTEX_POINT ( 'NONE', #157 ) ;
#160 = CARTESIAN_POINT ( 'NONE',  ( 9.999999999999994700, -20.00000000000000000, 10.00000000000000000 ) ) ;
#161 = CARTESIAN_POINT ( 'NONE',  ( 9.999999999999994700, 0.0000000000000000000, 10.00000000000000000 ) ) ;
#162 = CARTESIAN_POINT ( 'NONE',  ( 9.999999999999994700, -20.00000000000000000, 10.00000000000000000 ) ) ;
#163 = VERTEX_POINT ( 'NONE', #151 ) ;
#164 = VERTEX_POINT ( 'NONE', #172 ) ;
#165 = VERTEX_POINT ( 'NONE', #170 ) ;
#166 = DIRECTION ( 'NONE',  ( 1.000000000000000000, 0.0000000000000000000, 0.0000000000000000000 ) ) ;
#167 = VERTEX_POINT ( 'NONE', #162 ) ;
#168 = DIRECTION ( 'NONE',  ( 0.0000000000000000000, -1.000000000000000000, 0.0000000000000000000 ) ) ;
#169 = DIRECTION ( 'NONE',  ( 0.0000000000000000000, 0.0000000000000000000, 1.000000000000000000 ) ) ;
#170 = CARTESIAN_POINT ( 'NONE',  ( 95.00000000000000000, 0.0000000000000000000, 10.00000000000000000 ) ) ;
#171 = CARTESIAN_POINT ( 'NONE',  ( 95.00000000000000000, -20.00000000000000000, 10.00000000000000000 ) ) ;
#172 = CARTESIAN_POINT ( 'NONE',  ( 89.00000000000001400, -10.00000000000000000, 10.00000000000000000 ) ) ;
#173 = DIRECTION ( 'NONE',  ( -1.000000000000000000, -0.0000000000000000000, -0.0000000000000000000 ) ) ;
#174 = CARTESIAN_POINT ( 'NONE',  ( 85.00000000000000000, -10.00000000000000000, 10.00000000000000000 ) ) ;
#175 = DIRECTION ( 'NONE',  ( -0.0000000000000000000, -0.0000000000000000000, -1.000000000000000000 ) ) ;
#176 = ADVANCED_FACE ( 'NONE', ( #65, #60 ), #136, .F. ) ;
#177 = ADVANCED_FACE ( 'NONE', ( #56 ), #124, .F. ) ;
#178 = ADVANCED_FACE ( 'NONE', ( #51 ), #135, .F. ) ;
#179 = ADVANCED_FACE ( 'NONE', ( #62 ), #61, .F. ) ;
#180 = ADVANCED_FACE ( 'NONE', ( #48 ), #71, .F. ) ;
#181 = ADVANCED_FACE ( 'NONE', ( #47 ), #42, .F. ) ;
#182 = ADVANCED_FACE ( 'NONE', ( #46 ), #132, .F. ) ;
#183 = ADVANCED_FACE ( 'NONE', ( #45, #43 ), #226, .T. ) ;
#184 = EDGE_CURVE ( 'NONE', #156, #159, #40, .T. ) ;
#185 = CARTESIAN_POINT ( 'NONE',  ( 85.00000000000000000, -10.00000000000000000, 10.00000000000000000 ) ) ;
#186 =( NAMED_UNIT ( * ) PLANE_ANGLE_UNIT ( ) SI_UNIT ( $, .RADIAN. ) );
#187 = DIRECTION ( 'NONE',  ( 0.0000000000000000000, 0.0000000000000000000, 1.000000000000000000 ) ) ;
#188 = CARTESIAN_POINT ( 'NONE',  ( 9.999999999999994700, -10.00000000000000000, 10.00000000000000000 ) ) ;
#189 = DIRECTION ( 'NONE',  ( 1.000000000000000000, 0.0000000000000000000, 0.0000000000000000000 ) ) ;
#190 = DIRECTION ( 'NONE',  ( 0.0000000000000000000, -0.0000000000000000000, 1.000000000000000000 ) ) ;
#191 = DIRECTION ( 'NONE',  ( -1.000000000000000000, 0.0000000000000000000, 0.0000000000000000000 ) ) ;
#192 =( NAMED_UNIT ( * ) SI_UNIT ( $, .STERADIAN. ) SOLID_ANGLE_UNIT ( ) );
#193 = CARTESIAN_POINT ( 'NONE',  ( 85.00000000000000000, -10.00000000000000000, 10.00000000000000000 ) ) ;
#194 = CARTESIAN_POINT ( 'NONE',  ( 95.00000000000000000, 0.0000000000000000000, 0.0000000000000000000 ) ) ;
#195 = DIRECTION ( 'NONE',  ( -1.000000000000000000, 0.0000000000000000000, 0.0000000000000000000 ) ) ;
#196 = DIRECTION ( 'NONE',  ( -0.0000000000000000000, 1.000000000000000000, -0.0000000000000000000 ) ) ;
#197 =( LENGTH_UNIT ( ) NAMED_UNIT ( * ) SI_UNIT ( .MILLI., .METRE. ) );
#198 = CARTESIAN_POINT ( 'NONE',  ( 9.999999999999994700, 0.0000000000000000000, 0.0000000000000000000 ) ) ;
#199 = DIRECTION ( 'NONE',  ( -0.0000000000000000000, -0.0000000000000000000, -1.000000000000000000 ) ) ;
#200 = DIRECTION ( 'NONE',  ( -0.0000000000000000000, -0.0000000000000000000, -1.000000000000000000 ) ) ;
#201 = CARTESIAN_POINT ( 'NONE',  ( 85.00000000000000000, -10.00000000000000000, 10.00000000000000000 ) ) ;
#202 = DIRECTION ( 'NONE',  ( 1.000000000000000000, 0.0000000000000000000, 0.0000000000000000000 ) ) ;
#203 = DIRECTION ( 'NONE',  ( 1.000000000000000000, 0.0000000000000000000, 0.0000000000000000000 ) ) ;
#204 = DIRECTION ( 'NONE',  ( -1.000000000000000000, 0.0000000000000000000, 0.0000000000000000000 ) ) ;
#205 = DIRECTION ( 'NONE',  ( -1.000000000000000000, 0.0000000000000000000, 0.0000000000000000000 ) ) ;
#206 = DIRECTION ( 'NONE',  ( -1.000000000000000000, -0.0000000000000000000, -0.0000000000000000000 ) ) ;
#207 = CARTESIAN_POINT ( 'NONE',  ( 9.999999999999994700, -20.00000000000000000, 0.0000000000000000000 ) ) ;
#208 = CARTESIAN_POINT ( 'NONE',  ( 9.999999999999994700, -20.00000000000000000, 10.00000000000000000 ) ) ;
#209 = DIRECTION ( 'NONE',  ( -0.0000000000000000000, -0.0000000000000000000, -1.000000000000000000 ) ) ;
#210 = DIRECTION ( 'NONE',  ( 1.000000000000000000, 0.0000000000000000000, 0.0000000000000000000 ) ) ;
#211 = DIRECTION ( 'NONE',  ( 0.0000000000000000000, 0.0000000000000000000, 1.000000000000000000 ) ) ;
#212 = CARTESIAN_POINT ( 'NONE',  ( 9.999999999999994700, -10.00000000000000000, 0.0000000000000000000 ) ) ;
#213 = DIRECTION ( 'NONE',  ( -0.0000000000000000000, -0.0000000000000000000, -1.000000000000000000 ) ) ;
#214 = DIRECTION ( 'NONE',  ( -0.0000000000000000000, -0.0000000000000000000, -1.000000000000000000 ) ) ;
#215 = CARTESIAN_POINT ( 'NONE',  ( 9.999999999999994700, -10.00000000000000000, 10.00000000000000000 ) ) ;
#216 = CARTESIAN_POINT ( 'NONE',  ( 89.00000000000001400, -10.00000000000000000, 10.00000000000000000 ) ) ;
#217 = DIRECTION ( 'NONE',  ( -0.0000000000000000000, 1.000000000000000000, -0.0000000000000000000 ) ) ;
#218 = DIRECTION ( 'NONE',  ( 1.000000000000000000, 0.0000000000000000000, 0.0000000000000000000 ) ) ;
#219 = DIRECTION ( 'NONE',  ( -0.0000000000000000000, -0.0000000000000000000, -1.000000000000000000 ) ) ;
#220 = DIRECTION ( 'NONE',  ( 1.000000000000000000, 0.0000000000000000000, -0.0000000000000000000 ) ) ;
#221 = CARTESIAN_POINT ( 'NONE',  ( 85.00000000000000000, -10.00000000000000000, 0.0000000000000000000 ) ) ;
#222 = CARTESIAN_POINT ( 'NONE',  ( 95.00000000000000000, -20.00000000000000000, 10.00000000000000000 ) ) ;
#223 = DIRECTION ( 'NONE',  ( -0.0000000000000000000, -0.0000000000000000000, -1.000000000000000000 ) ) ;
#224 = CARTESIAN_POINT ( 'NONE',  ( 81.00000000000000000, -10.00000000000000000, 10.00000000000000000 ) ) ;
#225 = DIRECTION ( 'NONE',  ( 0.0000000000000000000, 0.0000000000000000000, 1.000000000000000000 ) ) ;
#226 = PLANE ( 'NONE',  #250 ) ;
#227 = DIRECTION ( 'NONE',  ( 0.0000000000000000000, 1.000000000000000000, 0.0000000000000000000 ) ) ;
#228 = CARTESIAN_POINT ( 'NONE',  ( 9.999999999999994700, -10.00000000000000000, 10.00000000000000000 ) ) ;
#229 = DIRECTION ( 'NONE',  ( 1.000000000000000000, 0.0000000000000000000, 0.0000000000000000000 ) ) ;
#230 = DIRECTION ( 'NONE',  ( -0.0000000000000000000, -0.0000000000000000000, -1.000000000000000000 ) ) ;
#231 = DIRECTION ( 'NONE',  ( 0.0000000000000000000, 0.0000000000000000000, 1.000000000000000000 ) ) ;
#232 = CARTESIAN_POINT ( 'NONE',  ( 95.00000000000000000, 0.0000000000000000000, 10.00000000000000000 ) ) ;
#233 = EDGE_CURVE ( 'NONE', #153, #148, #63, .T. ) ;
#234 = EDGE_CURVE ( 'NONE', #159, #122, #53, .T. ) ;
#235 = EDGE_CURVE ( 'NONE', #148, #163, #44, .T. ) ;
#236 = EDGE_CURVE ( 'NONE', #164, #122, #49, .T. ) ;
#237 = EDGE_CURVE ( 'NONE', #121, #167, #8, .T. ) ;
#238 = EDGE_CURVE ( 'NONE', #156, #164, #6, .T. ) ;
#239 = PRESENTATION_LAYER_ASSIGNMENT (  '', '', ( #67 ) ) ;
#240 = MECHANICAL_DESIGN_GEOMETRIC_PRESENTATION_REPRESENTATION (  '', ( #67 ), #54 ) ;
#241 = AXIS2_PLACEMENT_3D ( 'NONE', #134, #144, #149 ) ;
#242 = AXIS2_PLACEMENT_3D ( 'NONE', #174, #169, #166 ) ;
#243 = AXIS2_PLACEMENT_3D ( 'NONE', #125, #168, #140 ) ;
#244 = AXIS2_PLACEMENT_3D ( 'NONE', #150, #191, #187 ) ;
#245 = PRODUCT_DEFINITION ( 'UNKNOWN', '', #256, #111 ) ;
#246 = AXIS2_PLACEMENT_3D ( 'NONE', #127, #123, #154 ) ;
#247 = AXIS2_PLACEMENT_3D ( 'NONE', #215, #213, #229 ) ;
#248 = AXIS2_PLACEMENT_3D ( 'NONE', #221, #231, #189 ) ;
#249 = AXIS2_PLACEMENT_3D ( 'NONE', #160, #227, #190 ) ;
#250 = AXIS2_PLACEMENT_3D ( 'NONE', #228, #225, #220 ) ;
#251 = AXIS2_PLACEMENT_3D ( 'NONE', #193, #211, #210 ) ;
#252 = AXIS2_PLACEMENT_3D ( 'NONE', #212, #199, #202 ) ;
#253 = PRESENTATION_LAYER_ASSIGNMENT (  '', '', ( #105 ) ) ;
#254 = MECHANICAL_DESIGN_GEOMETRIC_PRESENTATION_REPRESENTATION (  '', ( #105 ), #35 ) ;
#255 = AXIS2_PLACEMENT_3D ( 'NONE', #269, #268, #267 ) ;
#256 = PRODUCT_DEFINITION_FORMATION_WITH_SPECIFIED_SOURCE ( 'ANY', '', #22, .NOT_KNOWN. ) ;
#257 = PRODUCT_RELATED_PRODUCT_CATEGORY ( 'part', '', ( #22 ) ) ;
#258 = EDGE_CURVE ( 'NONE', #163, #120, #37, .T. ) ;
#259 = EDGE_CURVE ( 'NONE', #120, #141, #33, .T. ) ;
#260 = EDGE_CURVE ( 'NONE', #167, #153, #39, .T. ) ;
#261 = EDGE_CURVE ( 'NONE', #141, #148, #98, .T. ) ;
#262 = APPLICATION_PROTOCOL_DEFINITION ( 'draft international standard', 'automotive_design', 1998, #263 ) ;
#263 = APPLICATION_CONTEXT ( 'automotive_design' ) ;
#264 = PRODUCT_CONTEXT ( 'NONE', #266, 'mechanical' ) ;
#265 = APPLICATION_PROTOCOL_DEFINITION ( 'draft international standard', 'automotive_design', 1998, #266 ) ;
#266 = APPLICATION_CONTEXT ( 'automotive_design' ) ;
#267 = DIRECTION ( 'NONE',  ( 1.000000000000000000, 0.0000000000000000000, 0.0000000000000000000 ) ) ;
#268 = DIRECTION ( 'NONE',  ( 0.0000000000000000000, 0.0000000000000000000, 1.000000000000000000 ) ) ;
#269 = CARTESIAN_POINT ( 'NONE',  ( 0.0000000000000000000, 0.0000000000000000000, 0.0000000000000000000 ) ) ;
#270 =( NAMED_UNIT ( * ) SI_UNIT ( $, .STERADIAN. ) SOLID_ANGLE_UNIT ( ) );
#271 =( NAMED_UNIT ( * ) PLANE_ANGLE_UNIT ( ) SI_UNIT ( $, .RADIAN. ) );
#272 =( LENGTH_UNIT ( ) NAMED_UNIT ( * ) SI_UNIT ( .MILLI., .METRE. ) );
#273 = SURFACE_STYLE_USAGE ( .BOTH. , #274 ) ;
#274 = SURFACE_SIDE_STYLE ('',( #32 ) ) ;
#275 = FILL_AREA_STYLE_COLOUR ( '', #20 ) ;
#276 = FILL_AREA_STYLE ('',( #275 ) ) ;
#277 = AXIS2_PLACEMENT_3D ( 'NONE', #201, #219, #204 ) ;
#278 = EDGE_CURVE ( 'NONE', #153, #165, #10, .T. ) ;
ENDSEC;
END-ISO-10303-21;
