ISO-10303-21;
HEADER;
FILE_DESCRIPTION (( 'STEP AP214' ),
    '1' );
FILE_NAME ('UTCrawlV1-USI-016-Aa-axe.STEP',
    '2019-10-04T08:44:47',
    ( '' ),
    ( '' ),
    'SwSTEP 2.0',
    'SolidWorks 2018',
    '' );
FILE_SCHEMA (( 'AUTOMOTIVE_DESIGN' ));
ENDSEC;

DATA;
#1 = VERTEX_POINT ( 'NONE', #77 ) ;
#2 = CIRCLE ( 'NONE', #183, 3.000000000000000444 ) ;
#3 = CIRCLE ( 'NONE', #95, 3.000000000000000444 ) ;
#4 = DIRECTION ( 'NONE',  ( 1.000000000000000000, 0.0000000000000000000, 0.0000000000000000000 ) ) ;
#5 = DIRECTION ( 'NONE',  ( 0.0000000000000000000, 0.0000000000000000000, 1.000000000000000000 ) ) ;
#6 = CARTESIAN_POINT ( 'NONE',  ( -2.236067977499790249, 2.000000000000000000, 45.00000000000000000 ) ) ;
#7 = AXIS2_PLACEMENT_3D ( 'NONE', #157, #174, #83 ) ;
#8 = DIRECTION ( 'NONE',  ( 1.000000000000000000, 0.0000000000000000000, 0.0000000000000000000 ) ) ;
#9 = DIRECTION ( 'NONE',  ( -0.0000000000000000000, -0.0000000000000000000, -1.000000000000000000 ) ) ;
#10 = CARTESIAN_POINT ( 'NONE',  ( 0.0000000000000000000, 0.0000000000000000000, 45.00000000000000000 ) ) ;
#11 = DIRECTION ( 'NONE',  ( 0.0000000000000000000, 0.0000000000000000000, 1.000000000000000000 ) ) ;
#12 = ORIENTED_EDGE ( 'NONE', *, *, #153, .F. ) ;
#13 =( NAMED_UNIT ( * ) PLANE_ANGLE_UNIT ( ) SI_UNIT ( $, .RADIAN. ) );
#14 = VERTEX_POINT ( 'NONE', #149 ) ;
#15 =( GEOMETRIC_REPRESENTATION_CONTEXT ( 3 ) GLOBAL_UNCERTAINTY_ASSIGNED_CONTEXT ( ( #94 ) ) GLOBAL_UNIT_ASSIGNED_CONTEXT ( ( #193, #156, #52 ) ) REPRESENTATION_CONTEXT ( 'NONE', 'WORKASPACE' ) );
#16 = EDGE_CURVE ( 'NONE', #90, #114, #38, .T. ) ;
#17 = ORIENTED_EDGE ( 'NONE', *, *, #121, .F. ) ;
#18 = EDGE_LOOP ( 'NONE', ( #106, #39, #196, #116, #17, #115, #102, #125 ) ) ;
#19 = PRESENTATION_STYLE_ASSIGNMENT (( #84 ) ) ;
#20 = FACE_OUTER_BOUND ( 'NONE', #30, .T. ) ;
#21 =( GEOMETRIC_REPRESENTATION_CONTEXT ( 3 ) GLOBAL_UNCERTAINTY_ASSIGNED_CONTEXT ( ( #70 ) ) GLOBAL_UNIT_ASSIGNED_CONTEXT ( ( #33, #100, #111 ) ) REPRESENTATION_CONTEXT ( 'NONE', 'WORKASPACE' ) );
#22 = ADVANCED_BREP_SHAPE_REPRESENTATION ( 'UTCrawlV1-USI-016-Aa-axe', ( #112, #206 ), #15 ) ;
#23 = FACE_OUTER_BOUND ( 'NONE', #18, .T. ) ;
#24 = CARTESIAN_POINT ( 'NONE',  ( 2.236067977499790249, 2.000000000000000000, 45.00000000000000000 ) ) ;
#25 = ORIENTED_EDGE ( 'NONE', *, *, #168, .T. ) ;
#26 = PRODUCT ( 'UTCrawlV1-USI-016-Aa-axe', 'UTCrawlV1-USI-016-Aa-axe', '', ( #190 ) ) ;
#27 = EDGE_CURVE ( 'NONE', #143, #126, #124, .T. ) ;
#28 = DIRECTION ( 'NONE',  ( 0.0000000000000000000, 0.0000000000000000000, 1.000000000000000000 ) ) ;
#29 = SURFACE_STYLE_FILL_AREA ( #170 ) ;
#30 = EDGE_LOOP ( 'NONE', ( #185, #34 ) ) ;
#31 = CARTESIAN_POINT ( 'NONE',  ( 2.236067977499790693, 2.000000000000000000, 45.00000000000000000 ) ) ;
#32 = CARTESIAN_POINT ( 'NONE',  ( -12.84758743378233703, 2.000000000000000000, 34.99999999999999289 ) ) ;
#33 =( LENGTH_UNIT ( ) NAMED_UNIT ( * ) SI_UNIT ( .MILLI., .METRE. ) );
#34 = ORIENTED_EDGE ( 'NONE', *, *, #104, .F. ) ;
#35 = PRESENTATION_LAYER_ASSIGNMENT (  '', '', ( #144 ) ) ;
#36 = FILL_AREA_STYLE_COLOUR ( '', #133 ) ;
#37 = EDGE_CURVE ( 'NONE', #54, #172, #146, .T. ) ;
#38 = CIRCLE ( 'NONE', #189, 3.000000000000000444 ) ;
#39 = ORIENTED_EDGE ( 'NONE', *, *, #153, .T. ) ;
#40 = STYLED_ITEM ( 'NONE', ( #19 ), #22 ) ;
#41 = ORIENTED_EDGE ( 'NONE', *, *, #27, .F. ) ;
#42 = ORIENTED_EDGE ( 'NONE', *, *, #121, .T. ) ;
#43 = CARTESIAN_POINT ( 'NONE',  ( -2.236067977499790693, 2.000000000000000000, 45.00000000000000000 ) ) ;
#44 = MECHANICAL_DESIGN_GEOMETRIC_PRESENTATION_REPRESENTATION (  '', ( #144 ), #129 ) ;
#45 = DIRECTION ( 'NONE',  ( -0.0000000000000000000, 0.0000000000000000000, 1.000000000000000000 ) ) ;
#46 = FACE_OUTER_BOUND ( 'NONE', #119, .T. ) ;
#47 = DIRECTION ( 'NONE',  ( 1.000000000000000000, 0.0000000000000000000, 0.0000000000000000000 ) ) ;
#48 = SURFACE_SIDE_STYLE ('',( #29 ) ) ;
#49 = PLANE ( 'NONE',  #72 ) ;
#50 = PLANE ( 'NONE',  #7 ) ;
#51 = VECTOR ( 'NONE', #9, 1000.000000000000000 ) ;
#52 =( NAMED_UNIT ( * ) SI_UNIT ( $, .STERADIAN. ) SOLID_ANGLE_UNIT ( ) );
#53 = CYLINDRICAL_SURFACE ( 'NONE', #85, 3.000000000000000444 ) ;
#54 = VERTEX_POINT ( 'NONE', #180 ) ;
#55 = ADVANCED_FACE ( 'NONE', ( #131 ), #97, .T. ) ;
#56 = UNCERTAINTY_MEASURE_WITH_UNIT (LENGTH_MEASURE( 1.000000000000000082E-05 ), #202, 'distance_accuracy_value', 'NONE');
#57 = PRODUCT_RELATED_PRODUCT_CATEGORY ( 'part', '', ( #26 ) ) ;
#58 = VECTOR ( 'NONE', #140, 1000.000000000000000 ) ;
#59 = CIRCLE ( 'NONE', #200, 3.000000000000000444 ) ;
#60 = DIRECTION ( 'NONE',  ( 0.0000000000000000000, 0.0000000000000000000, 1.000000000000000000 ) ) ;
#61 = PRODUCT_DEFINITION_CONTEXT ( 'detailed design', #127, 'design' ) ;
#62 = SURFACE_STYLE_USAGE ( .BOTH. , #48 ) ;
#63 = ORIENTED_EDGE ( 'NONE', *, *, #191, .F. ) ;
#64 = DIRECTION ( 'NONE',  ( 1.000000000000000000, 0.0000000000000000000, 0.0000000000000000000 ) ) ;
#65 = AXIS2_PLACEMENT_3D ( 'NONE', #103, #75, #4 ) ;
#66 = SURFACE_SIDE_STYLE ('',( #176 ) ) ;
#67 = DIRECTION ( 'NONE',  ( 0.0000000000000000000, 0.0000000000000000000, 1.000000000000000000 ) ) ;
#68 = CIRCLE ( 'NONE', #137, 3.000000000000000444 ) ;
#69 = EDGE_LOOP ( 'NONE', ( #132, #187 ) ) ;
#70 = UNCERTAINTY_MEASURE_WITH_UNIT (LENGTH_MEASURE( 1.000000000000000082E-05 ), #33, 'distance_accuracy_value', 'NONE');
#71 = PRESENTATION_STYLE_ASSIGNMENT (( #62 ) ) ;
#72 = AXIS2_PLACEMENT_3D ( 'NONE', #169, #11, #107 ) ;
#73 = VECTOR ( 'NONE', #47, 1000.000000000000000 ) ;
#74 = CIRCLE ( 'NONE', #65, 3.000000000000000444 ) ;
#75 = DIRECTION ( 'NONE',  ( -0.0000000000000000000, 0.0000000000000000000, 1.000000000000000000 ) ) ;
#76 = VECTOR ( 'NONE', #179, 1000.000000000000000 ) ;
#77 = CARTESIAN_POINT ( 'NONE',  ( 3.000000000000000444, 3.673940397442059868E-16, 45.00000000000000000 ) ) ;
#78 = DIRECTION ( 'NONE',  ( 1.000000000000000000, 0.0000000000000000000, 0.0000000000000000000 ) ) ;
#79 = VECTOR ( 'NONE', #184, 1000.000000000000000 ) ;
#80 = ORIENTED_EDGE ( 'NONE', *, *, #16, .T. ) ;
#81 =( NAMED_UNIT ( * ) SI_UNIT ( $, .STERADIAN. ) SOLID_ANGLE_UNIT ( ) );
#82 = DIRECTION ( 'NONE',  ( 1.000000000000000000, 0.0000000000000000000, 0.0000000000000000000 ) ) ;
#83 = DIRECTION ( 'NONE',  ( 0.0000000000000000000, -0.0000000000000000000, -1.000000000000000000 ) ) ;
#84 = SURFACE_STYLE_USAGE ( .BOTH. , #66 ) ;
#85 = AXIS2_PLACEMENT_3D ( 'NONE', #10, #122, #123 ) ;
#86 = COLOUR_RGB ( '',0.7921568627450980005, 0.8196078431372548767, 0.9333333333333333481 ) ;
#87 = ORIENTED_EDGE ( 'NONE', *, *, #161, .F. ) ;
#88 = ADVANCED_FACE ( 'NONE', ( #135 ), #150, .T. ) ;
#89 = FACE_OUTER_BOUND ( 'NONE', #136, .T. ) ;
#90 = VERTEX_POINT ( 'NONE', #197 ) ;
#91 = DIRECTION ( 'NONE',  ( -0.0000000000000000000, -0.0000000000000000000, -1.000000000000000000 ) ) ;
#92 = DIRECTION ( 'NONE',  ( -1.000000000000000000, 0.0000000000000000000, 0.0000000000000000000 ) ) ;
#93 = PRODUCT_DEFINITION ( 'UNKNOWN', '', #162, #61 ) ;
#94 = UNCERTAINTY_MEASURE_WITH_UNIT (LENGTH_MEASURE( 1.000000000000000082E-05 ), #193, 'distance_accuracy_value', 'NONE');
#95 = AXIS2_PLACEMENT_3D ( 'NONE', #203, #186, #8 ) ;
#96 = CARTESIAN_POINT ( 'NONE',  ( 0.0000000000000000000, 0.0000000000000000000, 0.0000000000000000000 ) ) ;
#97 = CYLINDRICAL_SURFACE ( 'NONE', #205, 3.000000000000000444 ) ;
#98 = ORIENTED_EDGE ( 'NONE', *, *, #145, .T. ) ;
#99 = CARTESIAN_POINT ( 'NONE',  ( -3.000000000000000444, 0.0000000000000000000, 45.00000000000000000 ) ) ;
#100 =( NAMED_UNIT ( * ) PLANE_ANGLE_UNIT ( ) SI_UNIT ( $, .RADIAN. ) );
#101 = EDGE_CURVE ( 'NONE', #54, #126, #74, .T. ) ;
#102 = ORIENTED_EDGE ( 'NONE', *, *, #101, .F. ) ;
#103 = CARTESIAN_POINT ( 'NONE',  ( 0.0000000000000000000, 0.0000000000000000000, 34.99999999999999289 ) ) ;
#104 = EDGE_CURVE ( 'NONE', #114, #90, #68, .T. ) ;
#105 = CARTESIAN_POINT ( 'NONE',  ( 3.000000000000000444, 3.673940397442059868E-16, 45.00000000000000000 ) ) ;
#106 = ORIENTED_EDGE ( 'NONE', *, *, #177, .F. ) ;
#107 = DIRECTION ( 'NONE',  ( 1.000000000000000000, 0.0000000000000000000, -0.0000000000000000000 ) ) ;
#108 = CARTESIAN_POINT ( 'NONE',  ( 0.0000000000000000000, 0.0000000000000000000, 45.00000000000000000 ) ) ;
#109 = APPLICATION_PROTOCOL_DEFINITION ( 'draft international standard', 'automotive_design', 1998, #127 ) ;
#110 = ORIENTED_EDGE ( 'NONE', *, *, #168, .F. ) ;
#111 =( NAMED_UNIT ( * ) SI_UNIT ( $, .STERADIAN. ) SOLID_ANGLE_UNIT ( ) );
#112 = MANIFOLD_SOLID_BREP ( 'Enlèv. mat.-Extru.1', #118 ) ;
#113 = PRESENTATION_LAYER_ASSIGNMENT (  '', '', ( #40 ) ) ;
#114 = VERTEX_POINT ( 'NONE', #166 ) ;
#115 = ORIENTED_EDGE ( 'NONE', *, *, #27, .T. ) ;
#116 = ORIENTED_EDGE ( 'NONE', *, *, #145, .F. ) ;
#117 = ADVANCED_FACE ( 'NONE', ( #89 ), #138, .T. ) ;
#118 = CLOSED_SHELL ( 'NONE', ( #158, #55, #117, #160, #88, #207 ) ) ;
#119 = EDGE_LOOP ( 'NONE', ( #139, #181, #63, #41 ) ) ;
#120 = DIRECTION ( 'NONE',  ( 1.000000000000000000, 0.0000000000000000000, 0.0000000000000000000 ) ) ;
#121 = EDGE_CURVE ( 'NONE', #143, #14, #59, .T. ) ;
#122 = DIRECTION ( 'NONE',  ( -0.0000000000000000000, -0.0000000000000000000, -1.000000000000000000 ) ) ;
#123 = DIRECTION ( 'NONE',  ( -1.000000000000000000, 0.0000000000000000000, 0.0000000000000000000 ) ) ;
#124 = LINE ( 'NONE', #6, #171 ) ;
#125 = ORIENTED_EDGE ( 'NONE', *, *, #37, .T. ) ;
#126 = VERTEX_POINT ( 'NONE', #182 ) ;
#127 = APPLICATION_CONTEXT ( 'automotive_design' ) ;
#128 = LINE ( 'NONE', #32, #73 ) ;
#129 =( GEOMETRIC_REPRESENTATION_CONTEXT ( 3 ) GLOBAL_UNCERTAINTY_ASSIGNED_CONTEXT ( ( #56 ) ) GLOBAL_UNIT_ASSIGNED_CONTEXT ( ( #202, #13, #81 ) ) REPRESENTATION_CONTEXT ( 'NONE', 'WORKASPACE' ) );
#130 = FILL_AREA_STYLE ('',( #36 ) ) ;
#131 = FACE_OUTER_BOUND ( 'NONE', #142, .T. ) ;
#132 = ORIENTED_EDGE ( 'NONE', *, *, #101, .T. ) ;
#133 = COLOUR_RGB ( '',0.7921568627450980005, 0.8196078431372548767, 0.9333333333333333481 ) ;
#134 = AXIS2_PLACEMENT_3D ( 'NONE', #204, #173, #141 ) ;
#135 = FACE_OUTER_BOUND ( 'NONE', #69, .T. ) ;
#136 = EDGE_LOOP ( 'NONE', ( #87, #42, #25, #159 ) ) ;
#137 = AXIS2_PLACEMENT_3D ( 'NONE', #96, #60, #155 ) ;
#138 = PLANE ( 'NONE',  #134 ) ;
#139 = ORIENTED_EDGE ( 'NONE', *, *, #161, .T. ) ;
#140 = DIRECTION ( 'NONE',  ( 1.000000000000000000, 0.0000000000000000000, -0.0000000000000000000 ) ) ;
#141 = DIRECTION ( 'NONE',  ( 1.000000000000000000, 0.0000000000000000000, -0.0000000000000000000 ) ) ;
#142 = EDGE_LOOP ( 'NONE', ( #12, #110, #98, #80 ) ) ;
#143 = VERTEX_POINT ( 'NONE', #43 ) ;
#144 = STYLED_ITEM ( 'NONE', ( #71 ), #112 ) ;
#145 = EDGE_CURVE ( 'NONE', #14, #90, #178, .T. ) ;
#146 = LINE ( 'NONE', #24, #76 ) ;
#147 = DIRECTION ( 'NONE',  ( -0.0000000000000000000, -0.0000000000000000000, -1.000000000000000000 ) ) ;
#148 = CARTESIAN_POINT ( 'NONE',  ( 0.0000000000000000000, 0.0000000000000000000, 45.00000000000000000 ) ) ;
#149 = CARTESIAN_POINT ( 'NONE',  ( -3.000000000000000444, 0.0000000000000000000, 45.00000000000000000 ) ) ;
#150 = PLANE ( 'NONE',  #165 ) ;
#151 = FILL_AREA_STYLE_COLOUR ( '', #86 ) ;
#152 = CARTESIAN_POINT ( 'NONE',  ( 0.0000000000000000000, 0.0000000000000000000, 45.00000000000000000 ) ) ;
#153 = EDGE_CURVE ( 'NONE', #1, #114, #192, .T. ) ;
#154 = SHAPE_DEFINITION_REPRESENTATION ( #194, #22 ) ;
#155 = DIRECTION ( 'NONE',  ( 1.000000000000000000, 0.0000000000000000000, 0.0000000000000000000 ) ) ;
#156 =( NAMED_UNIT ( * ) PLANE_ANGLE_UNIT ( ) SI_UNIT ( $, .RADIAN. ) );
#157 = CARTESIAN_POINT ( 'NONE',  ( -12.84758743378233703, 2.000000000000000000, 34.99999999999999289 ) ) ;
#158 = ADVANCED_FACE ( 'NONE', ( #23 ), #53, .T. ) ;
#159 = ORIENTED_EDGE ( 'NONE', *, *, #177, .T. ) ;
#160 = ADVANCED_FACE ( 'NONE', ( #20 ), #49, .F. ) ;
#161 = EDGE_CURVE ( 'NONE', #143, #172, #163, .T. ) ;
#162 = PRODUCT_DEFINITION_FORMATION_WITH_SPECIFIED_SOURCE ( 'ANY', '', #26, .NOT_KNOWN. ) ;
#163 = LINE ( 'NONE', #201, #58 ) ;
#164 = CARTESIAN_POINT ( 'NONE',  ( 0.0000000000000000000, 0.0000000000000000000, 34.99999999999999289 ) ) ;
#165 = AXIS2_PLACEMENT_3D ( 'NONE', #164, #45, #198 ) ;
#166 = CARTESIAN_POINT ( 'NONE',  ( 3.000000000000000444, 3.673940397442059868E-16, 0.0000000000000000000 ) ) ;
#167 = DIRECTION ( 'NONE',  ( 0.0000000000000000000, 0.0000000000000000000, 1.000000000000000000 ) ) ;
#168 = EDGE_CURVE ( 'NONE', #14, #1, #3, .T. ) ;
#169 = CARTESIAN_POINT ( 'NONE',  ( 0.0000000000000000000, 0.0000000000000000000, 0.0000000000000000000 ) ) ;
#170 = FILL_AREA_STYLE ('',( #151 ) ) ;
#171 = VECTOR ( 'NONE', #91, 1000.000000000000000 ) ;
#172 = VERTEX_POINT ( 'NONE', #31 ) ;
#173 = DIRECTION ( 'NONE',  ( 0.0000000000000000000, 0.0000000000000000000, 1.000000000000000000 ) ) ;
#174 = DIRECTION ( 'NONE',  ( 0.0000000000000000000, -1.000000000000000000, 0.0000000000000000000 ) ) ;
#175 = APPLICATION_PROTOCOL_DEFINITION ( 'draft international standard', 'automotive_design', 1998, #188 ) ;
#176 = SURFACE_STYLE_FILL_AREA ( #130 ) ;
#177 = EDGE_CURVE ( 'NONE', #1, #172, #2, .T. ) ;
#178 = LINE ( 'NONE', #99, #51 ) ;
#179 = DIRECTION ( 'NONE',  ( 0.0000000000000000000, 0.0000000000000000000, 1.000000000000000000 ) ) ;
#180 = CARTESIAN_POINT ( 'NONE',  ( 2.236067977499790693, 2.000000000000000000, 34.99999999999999289 ) ) ;
#181 = ORIENTED_EDGE ( 'NONE', *, *, #37, .F. ) ;
#182 = CARTESIAN_POINT ( 'NONE',  ( -2.236067977499790693, 2.000000000000000000, 34.99999999999999289 ) ) ;
#183 = AXIS2_PLACEMENT_3D ( 'NONE', #152, #167, #78 ) ;
#184 = DIRECTION ( 'NONE',  ( -0.0000000000000000000, -0.0000000000000000000, -1.000000000000000000 ) ) ;
#185 = ORIENTED_EDGE ( 'NONE', *, *, #16, .F. ) ;
#186 = DIRECTION ( 'NONE',  ( 0.0000000000000000000, 0.0000000000000000000, 1.000000000000000000 ) ) ;
#187 = ORIENTED_EDGE ( 'NONE', *, *, #191, .T. ) ;
#188 = APPLICATION_CONTEXT ( 'automotive_design' ) ;
#189 = AXIS2_PLACEMENT_3D ( 'NONE', #199, #5, #120 ) ;
#190 = PRODUCT_CONTEXT ( 'NONE', #188, 'mechanical' ) ;
#191 = EDGE_CURVE ( 'NONE', #126, #54, #128, .T. ) ;
#192 = LINE ( 'NONE', #105, #79 ) ;
#193 =( LENGTH_UNIT ( ) NAMED_UNIT ( * ) SI_UNIT ( .MILLI., .METRE. ) );
#194 = PRODUCT_DEFINITION_SHAPE ( 'NONE', 'NONE',  #93 ) ;
#195 = MECHANICAL_DESIGN_GEOMETRIC_PRESENTATION_REPRESENTATION (  '', ( #40 ), #21 ) ;
#196 = ORIENTED_EDGE ( 'NONE', *, *, #104, .T. ) ;
#197 = CARTESIAN_POINT ( 'NONE',  ( -3.000000000000000444, 0.0000000000000000000, 0.0000000000000000000 ) ) ;
#198 = DIRECTION ( 'NONE',  ( 1.000000000000000000, 0.0000000000000000000, 0.0000000000000000000 ) ) ;
#199 = CARTESIAN_POINT ( 'NONE',  ( 0.0000000000000000000, 0.0000000000000000000, 0.0000000000000000000 ) ) ;
#200 = AXIS2_PLACEMENT_3D ( 'NONE', #108, #28, #82 ) ;
#201 = CARTESIAN_POINT ( 'NONE',  ( 0.0000000000000000000, 2.000000000000000000, 45.00000000000000000 ) ) ;
#202 =( LENGTH_UNIT ( ) NAMED_UNIT ( * ) SI_UNIT ( .MILLI., .METRE. ) );
#203 = CARTESIAN_POINT ( 'NONE',  ( 0.0000000000000000000, 0.0000000000000000000, 45.00000000000000000 ) ) ;
#204 = CARTESIAN_POINT ( 'NONE',  ( 0.0000000000000000000, 0.0000000000000000000, 45.00000000000000000 ) ) ;
#205 = AXIS2_PLACEMENT_3D ( 'NONE', #148, #147, #92 ) ;
#206 = AXIS2_PLACEMENT_3D ( 'NONE', #208, #67, #64 ) ;
#207 = ADVANCED_FACE ( 'NONE', ( #46 ), #50, .F. ) ;
#208 = CARTESIAN_POINT ( 'NONE',  ( 0.0000000000000000000, 0.0000000000000000000, 0.0000000000000000000 ) ) ;
ENDSEC;
END-ISO-10303-21;
