ISO-10303-21;
HEADER;
FILE_DESCRIPTION (( 'STEP AP203' ),
    '1' );
FILE_NAME ('Planche de derrière.STEP',
    '2019-10-03T15:03:07',
    ( '' ),
    ( '' ),
    'SwSTEP 2.0',
    'SolidWorks 2018',
    '' );
FILE_SCHEMA (( 'CONFIG_CONTROL_DESIGN' ));
ENDSEC;

DATA;
#1 = DIRECTION ( 'NONE',  ( 0.0000000000000000000, 1.000000000000000000, 0.0000000000000000000 ) ) ;
#2 = ORIENTED_EDGE ( 'NONE', *, *, #20, .F. ) ;
#3 = ORIENTED_EDGE ( 'NONE', *, *, #330, .F. ) ;
#4 = MANIFOLD_SOLID_BREP ( 'Enlèv. mat.-Extru.1', #82 ) ;
#5 = PLANE ( 'NONE',  #36 ) ;
#6 = PLANE ( 'NONE',  #107 ) ;
#7 = VECTOR ( 'NONE', #223, 1000.000000000000000 ) ;
#8 = ORIENTED_EDGE ( 'NONE', *, *, #79, .F. ) ;
#9 = CARTESIAN_POINT ( 'NONE',  ( -148.0000000000000000, -7.999252848662744775, 3.000000000000000000 ) ) ;
#10 = LINE ( 'NONE', #94, #347 ) ;
#11 = ORIENTED_EDGE ( 'NONE', *, *, #259, .F. ) ;
#12 = ORIENTED_EDGE ( 'NONE', *, *, #59, .T. ) ;
#13 = ADVANCED_FACE ( 'NONE', ( #72 ), #5, .F. ) ;
#14 = APPROVAL ( #21, 'UNSPECIFIED' ) ;
#15 = ADVANCED_FACE ( 'NONE', ( #145 ), #205, .F. ) ;
#16 = CALENDAR_DATE ( 2019, 3, 10 ) ;
#17 = CARTESIAN_POINT ( 'NONE',  ( 145.0000000000000000, 91.99891642751894949, 0.0000000000000000000 ) ) ;
#18 = ORIENTED_EDGE ( 'NONE', *, *, #59, .F. ) ;
#19 = EDGE_CURVE ( 'NONE', #186, #121, #306, .T. ) ;
#20 = EDGE_CURVE ( 'NONE', #121, #155, #233, .T. ) ;
#21 = APPROVAL_STATUS ( 'not_yet_approved' ) ;
#22 = DIRECTION ( 'NONE',  ( 0.0000000000000000000, 0.0000000000000000000, -1.000000000000000000 ) ) ;
#23 = LOCAL_TIME ( 17, 3, 7.000000000000000000, #159 ) ;
#24 = ORIENTED_EDGE ( 'NONE', *, *, #316, .F. ) ;
#25 = CARTESIAN_POINT ( 'NONE',  ( 147.9999999999999716, 1.387778780781445676E-14, 0.0000000000000000000 ) ) ;
#26 = ORIENTED_EDGE ( 'NONE', *, *, #229, .F. ) ;
#27 = DIRECTION ( 'NONE',  ( -1.000000000000000000, -5.551216750573040689E-16, 0.0000000000000000000 ) ) ;
#28 = APPROVAL_DATE_TIME ( #201, #14 ) ;
#29 = EDGE_LOOP ( 'NONE', ( #18, #33, #283, #160 ) ) ;
#30 = CARTESIAN_POINT ( 'NONE',  ( -148.0000000000000000, 91.99891642751894949, 3.000000000000000000 ) ) ;
#31 = LINE ( 'NONE', #51, #331 ) ;
#32 = VECTOR ( 'NONE', #77, 1000.000000000000000 ) ;
#33 = ORIENTED_EDGE ( 'NONE', *, *, #351, .T. ) ;
#34 = CARTESIAN_POINT ( 'NONE',  ( 0.0000000000000000000, 0.0000000000000000000, 0.0000000000000000000 ) ) ;
#35 = CARTESIAN_POINT ( 'NONE',  ( -144.9999999999999716, 101.2724602917192698, 0.0000000000000000000 ) ) ;
#36 = AXIS2_PLACEMENT_3D ( 'NONE', #369, #99, #236 ) ;
#37 = LINE ( 'NONE', #322, #277 ) ;
#38 = ORIENTED_EDGE ( 'NONE', *, *, #351, .F. ) ;
#39 = CARTESIAN_POINT ( 'NONE',  ( -148.0000000000000000, -8.001640792638584188, 3.000000000000000000 ) ) ;
#40 = PLANE ( 'NONE',  #224 ) ;
#41 = EDGE_CURVE ( 'NONE', #328, #173, #97, .T. ) ;
#42 = CARTESIAN_POINT ( 'NONE',  ( 0.0000000000000000000, -8.001640792638584188, 0.0000000000000000000 ) ) ;
#43 = PERSON_AND_ORGANIZATION ( #175, #123 ) ;
#44 = DIRECTION ( 'NONE',  ( 0.0000000000000000000, -1.000000000000000000, 0.0000000000000000000 ) ) ;
#45 = LINE ( 'NONE', #295, #334 ) ;
#46 = EDGE_LOOP ( 'NONE', ( #220, #124, #275, #76 ) ) ;
#47 = CC_DESIGN_PERSON_AND_ORGANIZATION_ASSIGNMENT ( #48, #336, ( #345 ) ) ;
#48 = PERSON_AND_ORGANIZATION ( #175, #123 ) ;
#49 = ORIENTED_EDGE ( 'NONE', *, *, #19, .T. ) ;
#50 = DIRECTION ( 'NONE',  ( 0.0000000000000000000, -1.000000000000000000, -0.0000000000000000000 ) ) ;
#51 = CARTESIAN_POINT ( 'NONE',  ( 144.9999999999999716, 1.387778780781445676E-14, -5.000000000000000000 ) ) ;
#52 = CARTESIAN_POINT ( 'NONE',  ( 0.0000000000000000000, 0.0000000000000000000, 0.0000000000000000000 ) ) ;
#53 = FACE_OUTER_BOUND ( 'NONE', #324, .T. ) ;
#54 = DIRECTION ( 'NONE',  ( 5.551216750573040689E-16, -1.000000000000000000, 0.0000000000000000000 ) ) ;
#55 = UNCERTAINTY_MEASURE_WITH_UNIT (LENGTH_MEASURE( 1.000000000000000082E-05 ), #307, 'distance_accuracy_value', 'NONE');
#56 = DIRECTION ( 'NONE',  ( -0.0000000000000000000, -0.0000000000000000000, -1.000000000000000000 ) ) ;
#57 = AXIS2_PLACEMENT_3D ( 'NONE', #34, #183, #234 ) ;
#58 = AXIS2_PLACEMENT_3D ( 'NONE', #187, #239, #112 ) ;
#59 = EDGE_CURVE ( 'NONE', #228, #210, #70, .T. ) ;
#60 = VERTEX_POINT ( 'NONE', #67 ) ;
#61 = ORIENTED_EDGE ( 'NONE', *, *, #41, .T. ) ;
#62 = AXIS2_PLACEMENT_3D ( 'NONE', #104, #292, #267 ) ;
#63 = EDGE_CURVE ( 'NONE', #238, #344, #116, .T. ) ;
#64 = APPROVAL_PERSON_ORGANIZATION ( #176, #354, #332 ) ;
#65 = ORIENTED_EDGE ( 'NONE', *, *, #264, .T. ) ;
#66 = SECURITY_CLASSIFICATION ( '', '', #280 ) ;
#67 = CARTESIAN_POINT ( 'NONE',  ( 148.0000000000000000, -8.001640792638584188, 3.000000000000000000 ) ) ;
#68 = DIRECTION ( 'NONE',  ( 2.423741494708512093E-16, 1.000000000000000000, 0.0000000000000000000 ) ) ;
#69 = ADVANCED_BREP_SHAPE_REPRESENTATION ( 'Planche de derriÞre', ( #4, #279 ), #350 ) ;
#70 = LINE ( 'NONE', #317, #217 ) ;
#71 = CARTESIAN_POINT ( 'NONE',  ( -148.0000000000000000, -8.001640792638584188, 0.0000000000000000000 ) ) ;
#72 = FACE_OUTER_BOUND ( 'NONE', #108, .T. ) ;
#73 = DIRECTION ( 'NONE',  ( 1.000000000000000000, 0.0000000000000000000, 0.0000000000000000000 ) ) ;
#74 = CARTESIAN_POINT ( 'NONE',  ( 148.0000000000000000, -8.001640792638584188, 0.0000000000000000000 ) ) ;
#75 = VECTOR ( 'NONE', #22, 1000.000000000000000 ) ;
#76 = ORIENTED_EDGE ( 'NONE', *, *, #247, .T. ) ;
#77 = DIRECTION ( 'NONE',  ( -0.0000000000000000000, -0.0000000000000000000, -1.000000000000000000 ) ) ;
#78 = DIRECTION ( 'NONE',  ( 0.0000000000000000000, 0.0000000000000000000, 1.000000000000000000 ) ) ;
#79 = EDGE_CURVE ( 'NONE', #238, #93, #189, .T. ) ;
#80 = COORDINATED_UNIVERSAL_TIME_OFFSET ( 1, 0, .AHEAD. ) ;
#81 = FACE_OUTER_BOUND ( 'NONE', #46, .T. ) ;
#82 = CLOSED_SHELL ( 'NONE', ( #293, #13, #162, #248, #105, #15, #191, #218, #111, #245 ) ) ;
#83 = CC_DESIGN_SECURITY_CLASSIFICATION ( #66, ( #345 ) ) ;
#84 = CARTESIAN_POINT ( 'NONE',  ( -148.0000000000000000, 91.99891642751894949, 3.000000000000000000 ) ) ;
#85 = LOCAL_TIME ( 17, 3, 7.000000000000000000, #184 ) ;
#86 = EDGE_LOOP ( 'NONE', ( #340, #227, #190, #61 ) ) ;
#87 = DIRECTION ( 'NONE',  ( -2.423741494708512093E-16, -1.000000000000000000, 0.0000000000000000000 ) ) ;
#88 = APPLICATION_CONTEXT ( 'configuration controlled 3d designs of mechanical parts and assemblies' ) ;
#89 = PRODUCT_RELATED_PRODUCT_CATEGORY ( 'detail', '', ( #363 ) ) ;
#90 = APPROVAL_DATE_TIME ( #296, #100 ) ;
#91 = CARTESIAN_POINT ( 'NONE',  ( 147.9999999999999432, 91.99891642751894949, 0.0000000000000000000 ) ) ;
#92 = FACE_OUTER_BOUND ( 'NONE', #352, .T. ) ;
#93 = VERTEX_POINT ( 'NONE', #237 ) ;
#94 = CARTESIAN_POINT ( 'NONE',  ( 148.0000000000000000, -8.001640792638584188, 3.000000000000000000 ) ) ;
#95 = LINE ( 'NONE', #185, #204 ) ;
#96 = PERSON_AND_ORGANIZATION ( #175, #123 ) ;
#97 = LINE ( 'NONE', #30, #167 ) ;
#98 = DIRECTION ( 'NONE',  ( 1.000000000000000000, 0.0000000000000000000, 0.0000000000000000000 ) ) ;
#99 = DIRECTION ( 'NONE',  ( 1.000000000000000000, 0.0000000000000000000, 0.0000000000000000000 ) ) ;
#100 = APPROVAL ( #174, 'UNSPECIFIED' ) ;
#101 = APPROVAL_PERSON_ORGANIZATION ( #43, #14, #114 ) ;
#102 = CARTESIAN_POINT ( 'NONE',  ( -144.9999999999999716, 91.99891642751894949, 3.000000000000000000 ) ) ;
#103 = ORIENTED_EDGE ( 'NONE', *, *, #63, .F. ) ;
#104 = CARTESIAN_POINT ( 'NONE',  ( 0.0000000000000000000, 0.0000000000000000000, 3.000000000000000000 ) ) ;
#105 = ADVANCED_FACE ( 'NONE', ( #92 ), #207, .T. ) ;
#106 = DIRECTION ( 'NONE',  ( -1.000000000000000000, 0.0000000000000000000, 0.0000000000000000000 ) ) ;
#107 = AXIS2_PLACEMENT_3D ( 'NONE', #84, #44, #353 ) ;
#108 = EDGE_LOOP ( 'NONE', ( #266, #49, #202, #179 ) ) ;
#109 = PERSON_AND_ORGANIZATION ( #175, #123 ) ;
#110 = VERTEX_POINT ( 'NONE', #182 ) ;
#111 = ADVANCED_FACE ( 'NONE', ( #243 ), #343, .F. ) ;
#112 = DIRECTION ( 'NONE',  ( -1.000000000000000000, 0.0000000000000000000, 0.0000000000000000000 ) ) ;
#113 = DIRECTION ( 'NONE',  ( -5.551216750573040689E-16, 1.000000000000000000, 0.0000000000000000000 ) ) ;
#114 = APPROVAL_ROLE ( '' ) ;
#115 = LINE ( 'NONE', #25, #129 ) ;
#116 = LINE ( 'NONE', #157, #256 ) ;
#117 = PERSON_AND_ORGANIZATION_ROLE ( 'classification_officer' ) ;
#118 = CARTESIAN_POINT ( 'NONE',  ( -145.0000000000000000, 3.514425167327342130E-14, -5.000000000000000000 ) ) ;
#119 = MECHANICAL_CONTEXT ( 'NONE', #88, 'mechanical' ) ;
#120 = DATE_AND_TIME ( #166, #192 ) ;
#121 = VERTEX_POINT ( 'NONE', #128 ) ;
#122 = EDGE_CURVE ( 'NONE', #328, #344, #282, .T. ) ;
#123 = ORGANIZATION ( 'UNSPECIFIED', 'UNSPECIFIED', '' ) ;
#124 = ORIENTED_EDGE ( 'NONE', *, *, #284, .T. ) ;
#125 = CC_DESIGN_APPROVAL ( #354, ( #345 ) ) ;
#126 = DIRECTION ( 'NONE',  ( -1.000000000000000000, 0.0000000000000000000, 0.0000000000000000000 ) ) ;
#127 = CARTESIAN_POINT ( 'NONE',  ( 147.9999999999999716, 1.387778780781445676E-14, -5.000000000000000000 ) ) ;
#128 = CARTESIAN_POINT ( 'NONE',  ( -148.0000000000000000, -8.001640792638584188, 0.0000000000000000000 ) ) ;
#129 = VECTOR ( 'NONE', #335, 1000.000000000000000 ) ;
#130 = CARTESIAN_POINT ( 'NONE',  ( 147.9999999999999432, 91.99891642751894949, 3.000000000000000000 ) ) ;
#131 = CARTESIAN_POINT ( 'NONE',  ( 144.9999999999999716, 1.387778780781445676E-14, -5.000000000000000000 ) ) ;
#132 = EDGE_CURVE ( 'NONE', #136, #274, #301, .T. ) ;
#133 = DIRECTION ( 'NONE',  ( 2.423741494708512093E-16, 1.000000000000000000, 0.0000000000000000000 ) ) ;
#134 = DIRECTION ( 'NONE',  ( -0.0000000000000000000, -1.000000000000000000, -0.0000000000000000000 ) ) ;
#135 = ORIENTED_EDGE ( 'NONE', *, *, #122, .T. ) ;
#136 = VERTEX_POINT ( 'NONE', #251 ) ;
#137 = DIRECTION ( 'NONE',  ( 0.0000000000000000000, 0.0000000000000000000, 1.000000000000000000 ) ) ;
#138 = EDGE_CURVE ( 'NONE', #364, #93, #339, .T. ) ;
#139 = AXIS2_PLACEMENT_3D ( 'NONE', #35, #341, #68 ) ;
#140 =( NAMED_UNIT ( * ) SI_UNIT ( $, .STERADIAN. ) SOLID_ANGLE_UNIT ( ) );
#141 = VECTOR ( 'NONE', #240, 1000.000000000000000 ) ;
#142 = APPROVAL_STATUS ( 'not_yet_approved' ) ;
#143 = CARTESIAN_POINT ( 'NONE',  ( 145.0000000000000000, 101.2724602917192698, 0.0000000000000000000 ) ) ;
#144 = PERSON_AND_ORGANIZATION_ROLE ( 'design_owner' ) ;
#145 = FACE_OUTER_BOUND ( 'NONE', #29, .T. ) ;
#146 = DATE_TIME_ROLE ( 'creation_date' ) ;
#147 = ORIENTED_EDGE ( 'NONE', *, *, #264, .F. ) ;
#148 = EDGE_CURVE ( 'NONE', #274, #210, #95, .T. ) ;
#149 = APPROVAL_PERSON_ORGANIZATION ( #291, #100, #200 ) ;
#150 = FACE_OUTER_BOUND ( 'NONE', #86, .T. ) ;
#151 = AXIS2_PLACEMENT_3D ( 'NONE', #300, #216, #158 ) ;
#152 = LOCAL_TIME ( 17, 3, 7.000000000000000000, #80 ) ;
#153 = ORIENTED_EDGE ( 'NONE', *, *, #290, .F. ) ;
#154 = DIRECTION ( 'NONE',  ( -0.0000000000000000000, -1.000000000000000000, -0.0000000000000000000 ) ) ;
#155 = VERTEX_POINT ( 'NONE', #349 ) ;
#156 = CARTESIAN_POINT ( 'NONE',  ( 145.0000000000000000, 91.99891642751894949, 3.000000000000000000 ) ) ;
#157 = CARTESIAN_POINT ( 'NONE',  ( -148.0000000000000000, 91.99891642751894949, 0.0000000000000000000 ) ) ;
#158 = DIRECTION ( 'NONE',  ( -2.423741494708512093E-16, -1.000000000000000000, 0.0000000000000000000 ) ) ;
#159 = COORDINATED_UNIVERSAL_TIME_OFFSET ( 1, 0, .AHEAD. ) ;
#160 = ORIENTED_EDGE ( 'NONE', *, *, #148, .T. ) ;
#161 = DIRECTION ( 'NONE',  ( 0.0000000000000000000, 0.0000000000000000000, -1.000000000000000000 ) ) ;
#162 = ADVANCED_FACE ( 'NONE', ( #297 ), #6, .F. ) ;
#163 = CALENDAR_DATE ( 2019, 3, 10 ) ;
#164 = ORIENTED_EDGE ( 'NONE', *, *, #122, .F. ) ;
#165 = ORIENTED_EDGE ( 'NONE', *, *, #132, .T. ) ;
#166 = CALENDAR_DATE ( 2019, 3, 10 ) ;
#167 = VECTOR ( 'NONE', #287, 1000.000000000000000 ) ;
#168 = APPLICATION_PROTOCOL_DEFINITION ( 'international standard', 'config_control_design', 1994, #359 ) ;
#169 = APPLICATION_PROTOCOL_DEFINITION ( 'international standard', 'config_control_design', 1994, #88 ) ;
#170 = AXIS2_PLACEMENT_3D ( 'NONE', #127, #1, #211 ) ;
#171 = APPROVAL_DATE_TIME ( #242, #354 ) ;
#172 = CARTESIAN_POINT ( 'NONE',  ( -148.0000000000000000, -8.001640792638584188, 3.000000000000000000 ) ) ;
#173 = VERTEX_POINT ( 'NONE', #329 ) ;
#174 = APPROVAL_STATUS ( 'not_yet_approved' ) ;
#175 = PERSON ( 'UNSPECIFIED', 'UNSPECIFIED', 'UNSPECIFIED', ('UNSPECIFIED'), ('UNSPECIFIED'), ('UNSPECIFIED') ) ;
#176 = PERSON_AND_ORGANIZATION ( #175, #123 ) ;
#177 = ORIENTED_EDGE ( 'NONE', *, *, #138, .T. ) ;
#178 = LINE ( 'NONE', #143, #7 ) ;
#179 = ORIENTED_EDGE ( 'NONE', *, *, #246, .F. ) ;
#180 = ORIENTED_EDGE ( 'NONE', *, *, #360, .F. ) ;
#181 = CC_DESIGN_DATE_AND_TIME_ASSIGNMENT ( #120, #304, ( #66 ) ) ;
#182 = CARTESIAN_POINT ( 'NONE',  ( 144.9999999999999716, 1.387778780781445676E-14, 0.0000000000000000000 ) ) ;
#183 = DIRECTION ( 'NONE',  ( 0.0000000000000000000, 0.0000000000000000000, -1.000000000000000000 ) ) ;
#184 = COORDINATED_UNIVERSAL_TIME_OFFSET ( 1, 0, .AHEAD. ) ;
#185 = CARTESIAN_POINT ( 'NONE',  ( -144.9999999999999716, 1.387778780781445676E-14, -5.000000000000000000 ) ) ;
#186 = VERTEX_POINT ( 'NONE', #320 ) ;
#187 = CARTESIAN_POINT ( 'NONE',  ( 0.0000000000000000000, 0.0000000000000000000, -5.000000000000000000 ) ) ;
#188 = PLANE ( 'NONE',  #151 ) ;
#189 = LINE ( 'NONE', #156, #367 ) ;
#190 = ORIENTED_EDGE ( 'NONE', *, *, #368, .T. ) ;
#191 = ADVANCED_FACE ( 'NONE', ( #53 ), #214, .T. ) ;
#192 = LOCAL_TIME ( 17, 3, 7.000000000000000000, #265 ) ;
#193 = CARTESIAN_POINT ( 'NONE',  ( -148.0000000000000000, 91.99891642751894949, 3.000000000000000000 ) ) ;
#194 = CC_DESIGN_PERSON_AND_ORGANIZATION_ASSIGNMENT ( #305, #144, ( #363 ) ) ;
#195 = DIRECTION ( 'NONE',  ( 1.000000000000000000, 0.0000000000000000000, 0.0000000000000000000 ) ) ;
#196 = SHAPE_DEFINITION_REPRESENTATION ( #326, #69 ) ;
#197 = LINE ( 'NONE', #74, #294 ) ;
#198 = PERSON_AND_ORGANIZATION_ROLE ( 'creator' ) ;
#199 = ORIENTED_EDGE ( 'NONE', *, *, #148, .F. ) ;
#200 = APPROVAL_ROLE ( '' ) ;
#201 = DATE_AND_TIME ( #232, #23 ) ;
#202 = ORIENTED_EDGE ( 'NONE', *, *, #284, .F. ) ;
#203 = VECTOR ( 'NONE', #56, 1000.000000000000000 ) ;
#204 = VECTOR ( 'NONE', #161, 1000.000000000000000 ) ;
#205 = PLANE ( 'NONE',  #170 ) ;
#206 = ORIENTED_EDGE ( 'NONE', *, *, #41, .F. ) ;
#207 = PLANE ( 'NONE',  #57 ) ;
#208 = CARTESIAN_POINT ( 'NONE',  ( -148.0000000000000000, -7.999252848662744775, 0.0000000000000000000 ) ) ;
#209 = FACE_OUTER_BOUND ( 'NONE', #342, .T. ) ;
#210 = VERTEX_POINT ( 'NONE', #269 ) ;
#211 = DIRECTION ( 'NONE',  ( 0.0000000000000000000, -0.0000000000000000000, 1.000000000000000000 ) ) ;
#212 = CARTESIAN_POINT ( 'NONE',  ( 148.0000000000000000, 91.99891642751894949, -5.000000000000000000 ) ) ;
#213 = CC_DESIGN_PERSON_AND_ORGANIZATION_ASSIGNMENT ( #96, #198, ( #345 ) ) ;
#214 = PLANE ( 'NONE',  #58 ) ;
#215 = FACE_OUTER_BOUND ( 'NONE', #298, .T. ) ;
#216 = DIRECTION ( 'NONE',  ( -1.000000000000000000, 2.423741494708512093E-16, 0.0000000000000000000 ) ) ;
#217 = VECTOR ( 'NONE', #126, 1000.000000000000000 ) ;
#218 = ADVANCED_FACE ( 'NONE', ( #81 ), #40, .T. ) ;
#219 = CC_DESIGN_APPROVAL ( #100, ( #66 ) ) ;
#220 = ORIENTED_EDGE ( 'NONE', *, *, #311, .T. ) ;
#221 = EDGE_LOOP ( 'NONE', ( #103, #308, #235, #288, #65, #153, #206, #135 ) ) ;
#222 = LINE ( 'NONE', #102, #348 ) ;
#223 = DIRECTION ( 'NONE',  ( 2.423741494708512093E-16, 1.000000000000000000, -0.0000000000000000000 ) ) ;
#224 = AXIS2_PLACEMENT_3D ( 'NONE', #42, #50, #270 ) ;
#225 = CARTESIAN_POINT ( 'NONE',  ( 148.0000000000000000, -7.999252848662744775, 3.000000000000000000 ) ) ;
#226 = CARTESIAN_POINT ( 'NONE',  ( -145.0000000000000000, 1.387778780781445676E-14, 0.0000000000000000000 ) ) ;
#227 = ORIENTED_EDGE ( 'NONE', *, *, #311, .F. ) ;
#228 = VERTEX_POINT ( 'NONE', #131 ) ;
#229 = EDGE_CURVE ( 'NONE', #364, #136, #222, .T. ) ;
#230 = COORDINATED_UNIVERSAL_TIME_OFFSET ( 1, 0, .AHEAD. ) ;
#231 = LINE ( 'NONE', #9, #271 ) ;
#232 = CALENDAR_DATE ( 2019, 3, 10 ) ;
#233 = LINE ( 'NONE', #71, #356 ) ;
#234 = DIRECTION ( 'NONE',  ( -1.000000000000000000, 0.0000000000000000000, -0.0000000000000000000 ) ) ;
#235 = ORIENTED_EDGE ( 'NONE', *, *, #138, .F. ) ;
#236 = DIRECTION ( 'NONE',  ( 0.0000000000000000000, 0.0000000000000000000, -1.000000000000000000 ) ) ;
#237 = CARTESIAN_POINT ( 'NONE',  ( 145.0000000000000000, 91.99891642751894949, -5.000000000000000000 ) ) ;
#238 = VERTEX_POINT ( 'NONE', #17 ) ;
#239 = DIRECTION ( 'NONE',  ( 0.0000000000000000000, 0.0000000000000000000, -1.000000000000000000 ) ) ;
#240 = DIRECTION ( 'NONE',  ( -2.423741494708512093E-16, -1.000000000000000000, 0.0000000000000000000 ) ) ;
#241 = DIRECTION ( 'NONE',  ( 1.000000000000000000, -0.0000000000000000000, -0.0000000000000000000 ) ) ;
#242 = DATE_AND_TIME ( #16, #85 ) ;
#243 = FACE_OUTER_BOUND ( 'NONE', #338, .T. ) ;
#244 = ORIENTED_EDGE ( 'NONE', *, *, #259, .T. ) ;
#245 = ADVANCED_FACE ( 'NONE', ( #209 ), #188, .F. ) ;
#246 = EDGE_CURVE ( 'NONE', #173, #262, #231, .T. ) ;
#247 = EDGE_CURVE ( 'NONE', #155, #60, #197, .T. ) ;
#248 = ADVANCED_FACE ( 'NONE', ( #150 ), #289, .F. ) ;
#249 = VECTOR ( 'NONE', #87, 1000.000000000000000 ) ;
#250 = ORIENTED_EDGE ( 'NONE', *, *, #19, .F. ) ;
#251 = CARTESIAN_POINT ( 'NONE',  ( -144.9999999999999716, 91.99891642751894949, 0.0000000000000000000 ) ) ;
#252 = DIRECTION ( 'NONE',  ( 0.0000000000000000000, -0.0000000000000000000, 1.000000000000000000 ) ) ;
#253 = CARTESIAN_POINT ( 'NONE',  ( -144.9999999999999432, 91.99891642751894949, -5.000000000000000000 ) ) ;
#254 = LOCAL_TIME ( 17, 3, 7.000000000000000000, #230 ) ;
#255 = DIRECTION ( 'NONE',  ( -1.000000000000000000, 0.0000000000000000000, 0.0000000000000000000 ) ) ;
#256 = VECTOR ( 'NONE', #73, 1000.000000000000000 ) ;
#257 = ORIENTED_EDGE ( 'NONE', *, *, #337, .F. ) ;
#258 = CARTESIAN_POINT ( 'NONE',  ( 147.9999999999999432, 91.99891642751894949, 3.000000000000000000 ) ) ;
#259 = EDGE_CURVE ( 'NONE', #228, #93, #45, .T. ) ;
#260 = AXIS2_PLACEMENT_3D ( 'NONE', #225, #27, #54 ) ;
#261 = LINE ( 'NONE', #276, #299 ) ;
#262 = VERTEX_POINT ( 'NONE', #39 ) ;
#263 = ORIENTED_EDGE ( 'NONE', *, *, #368, .F. ) ;
#264 = EDGE_CURVE ( 'NONE', #136, #186, #37, .T. ) ;
#265 = COORDINATED_UNIVERSAL_TIME_OFFSET ( 1, 0, .AHEAD. ) ;
#266 = ORIENTED_EDGE ( 'NONE', *, *, #290, .T. ) ;
#267 = DIRECTION ( 'NONE',  ( -1.000000000000000000, 0.0000000000000000000, -0.0000000000000000000 ) ) ;
#268 = PRODUCT_DEFINITION ( 'UNKNOWN', '', #345, #273 ) ;
#269 = CARTESIAN_POINT ( 'NONE',  ( -145.0000000000000000, 1.387778780781445676E-14, -5.000000000000000000 ) ) ;
#270 = DIRECTION ( 'NONE',  ( 0.0000000000000000000, 0.0000000000000000000, -1.000000000000000000 ) ) ;
#271 = VECTOR ( 'NONE', #134, 1000.000000000000000 ) ;
#272 = ORIENTED_EDGE ( 'NONE', *, *, #360, .T. ) ;
#273 = DESIGN_CONTEXT ( 'detailed design', #359, 'design' ) ;
#274 = VERTEX_POINT ( 'NONE', #226 ) ;
#275 = ORIENTED_EDGE ( 'NONE', *, *, #20, .T. ) ;
#276 = CARTESIAN_POINT ( 'NONE',  ( 148.0000000000000000, -7.999252848662744775, 3.000000000000000000 ) ) ;
#277 = VECTOR ( 'NONE', #106, 1000.000000000000000 ) ;
#278 = VECTOR ( 'NONE', #154, 1000.000000000000000 ) ;
#279 = AXIS2_PLACEMENT_3D ( 'NONE', #52, #358, #195 ) ;
#280 = SECURITY_CLASSIFICATION_LEVEL ( 'unclassified' ) ;
#281 = DIRECTION ( 'NONE',  ( -5.551216750573040689E-16, 1.000000000000000000, 0.0000000000000000000 ) ) ;
#282 = LINE ( 'NONE', #130, #32 ) ;
#283 = ORIENTED_EDGE ( 'NONE', *, *, #337, .T. ) ;
#284 = EDGE_CURVE ( 'NONE', #262, #121, #285, .T. ) ;
#285 = LINE ( 'NONE', #172, #75 ) ;
#286 = ORIENTED_EDGE ( 'NONE', *, *, #247, .F. ) ;
#287 = DIRECTION ( 'NONE',  ( -1.000000000000000000, -0.0000000000000000000, -0.0000000000000000000 ) ) ;
#288 = ORIENTED_EDGE ( 'NONE', *, *, #229, .T. ) ;
#289 = PLANE ( 'NONE',  #62 ) ;
#290 = EDGE_CURVE ( 'NONE', #173, #186, #318, .T. ) ;
#291 = PERSON_AND_ORGANIZATION ( #175, #123 ) ;
#292 = DIRECTION ( 'NONE',  ( 0.0000000000000000000, 0.0000000000000000000, -1.000000000000000000 ) ) ;
#293 = ADVANCED_FACE ( 'NONE', ( #215 ), #357, .F. ) ;
#294 = VECTOR ( 'NONE', #78, 1000.000000000000000 ) ;
#295 = CARTESIAN_POINT ( 'NONE',  ( 144.9999999999999716, -3.514425167327341499E-14, -5.000000000000000000 ) ) ;
#296 = DATE_AND_TIME ( #163, #152 ) ;
#297 = FACE_OUTER_BOUND ( 'NONE', #221, .T. ) ;
#298 = EDGE_LOOP ( 'NONE', ( #319, #164, #263, #286 ) ) ;
#299 = VECTOR ( 'NONE', #113, 1000.000000000000000 ) ;
#300 = CARTESIAN_POINT ( 'NONE',  ( 145.0000000000000000, 101.2724602917192698, 0.0000000000000000000 ) ) ;
#301 = LINE ( 'NONE', #346, #141 ) ;
#302 =( NAMED_UNIT ( * ) PLANE_ANGLE_UNIT ( ) SI_UNIT ( $, .RADIAN. ) );
#303 = PERSON_AND_ORGANIZATION_ROLE ( 'creator' ) ;
#304 = DATE_TIME_ROLE ( 'classification_date' ) ;
#305 = PERSON_AND_ORGANIZATION ( #175, #123 ) ;
#306 = LINE ( 'NONE', #208, #278 ) ;
#307 =( LENGTH_UNIT ( ) NAMED_UNIT ( * ) SI_UNIT ( .MILLI., .METRE. ) );
#308 = ORIENTED_EDGE ( 'NONE', *, *, #79, .T. ) ;
#309 = PERSON_AND_ORGANIZATION ( #175, #123 ) ;
#310 = ORIENTED_EDGE ( 'NONE', *, *, #132, .F. ) ;
#311 = EDGE_CURVE ( 'NONE', #60, #262, #10, .T. ) ;
#312 = CC_DESIGN_PERSON_AND_ORGANIZATION_ASSIGNMENT ( #309, #303, ( #268 ) ) ;
#313 = DATE_AND_TIME ( #366, #254 ) ;
#314 = VECTOR ( 'NONE', #241, 1000.000000000000000 ) ;
#315 = DIRECTION ( 'NONE',  ( 0.0000000000000000000, 0.0000000000000000000, -1.000000000000000000 ) ) ;
#316 = EDGE_CURVE ( 'NONE', #155, #344, #355, .T. ) ;
#317 = CARTESIAN_POINT ( 'NONE',  ( 147.9999999999999716, 1.387778780781445676E-14, -5.000000000000000000 ) ) ;
#318 = LINE ( 'NONE', #193, #203 ) ;
#319 = ORIENTED_EDGE ( 'NONE', *, *, #316, .T. ) ;
#320 = CARTESIAN_POINT ( 'NONE',  ( -148.0000000000000000, 91.99891642751894949, 0.0000000000000000000 ) ) ;
#321 = CC_DESIGN_APPROVAL ( #14, ( #268 ) ) ;
#322 = CARTESIAN_POINT ( 'NONE',  ( -148.0000000000000000, 91.99891642751894949, 0.0000000000000000000 ) ) ;
#323 = LINE ( 'NONE', #118, #249 ) ;
#324 = EDGE_LOOP ( 'NONE', ( #11, #12, #180, #177 ) ) ;
#325 = ORIENTED_EDGE ( 'NONE', *, *, #330, .T. ) ;
#326 = PRODUCT_DEFINITION_SHAPE ( 'NONE', 'NONE',  #268 ) ;
#327 = VECTOR ( 'NONE', #281, 1000.000000000000000 ) ;
#328 = VERTEX_POINT ( 'NONE', #258 ) ;
#329 = CARTESIAN_POINT ( 'NONE',  ( -148.0000000000000000, 91.99891642751894949, 3.000000000000000000 ) ) ;
#330 = EDGE_CURVE ( 'NONE', #110, #238, #178, .T. ) ;
#331 = VECTOR ( 'NONE', #252, 1000.000000000000000 ) ;
#332 = APPROVAL_ROLE ( '' ) ;
#333 = CC_DESIGN_DATE_AND_TIME_ASSIGNMENT ( #313, #146, ( #268 ) ) ;
#334 = VECTOR ( 'NONE', #133, 1000.000000000000000 ) ;
#335 = DIRECTION ( 'NONE',  ( -1.000000000000000000, 0.0000000000000000000, 0.0000000000000000000 ) ) ;
#336 = PERSON_AND_ORGANIZATION_ROLE ( 'design_supplier' ) ;
#337 = EDGE_CURVE ( 'NONE', #110, #274, #115, .T. ) ;
#338 = EDGE_LOOP ( 'NONE', ( #272, #199, #310, #26 ) ) ;
#339 = LINE ( 'NONE', #212, #314 ) ;
#340 = ORIENTED_EDGE ( 'NONE', *, *, #246, .T. ) ;
#341 = DIRECTION ( 'NONE',  ( 1.000000000000000000, -2.423741494708512093E-16, 0.0000000000000000000 ) ) ;
#342 = EDGE_LOOP ( 'NONE', ( #3, #38, #244, #8 ) ) ;
#343 = PLANE ( 'NONE',  #139 ) ;
#344 = VERTEX_POINT ( 'NONE', #91 ) ;
#345 = PRODUCT_DEFINITION_FORMATION_WITH_SPECIFIED_SOURCE ( 'ANY', '', #363, .NOT_KNOWN. ) ;
#346 = CARTESIAN_POINT ( 'NONE',  ( -144.9999999999999716, 101.2724602917192698, 0.0000000000000000000 ) ) ;
#347 = VECTOR ( 'NONE', #255, 1000.000000000000000 ) ;
#348 = VECTOR ( 'NONE', #137, 1000.000000000000000 ) ;
#349 = CARTESIAN_POINT ( 'NONE',  ( 148.0000000000000000, -8.001640792638584188, 0.0000000000000000000 ) ) ;
#350 =( GEOMETRIC_REPRESENTATION_CONTEXT ( 3 ) GLOBAL_UNCERTAINTY_ASSIGNED_CONTEXT ( ( #55 ) ) GLOBAL_UNIT_ASSIGNED_CONTEXT ( ( #307, #302, #140 ) ) REPRESENTATION_CONTEXT ( 'NONE', 'WORKASPACE' ) );
#351 = EDGE_CURVE ( 'NONE', #228, #110, #31, .T. ) ;
#352 = EDGE_LOOP ( 'NONE', ( #257, #325, #362, #24, #2, #250, #147, #165 ) ) ;
#353 = DIRECTION ( 'NONE',  ( 0.0000000000000000000, -0.0000000000000000000, -1.000000000000000000 ) ) ;
#354 = APPROVAL ( #142, 'UNSPECIFIED' ) ;
#355 = LINE ( 'NONE', #361, #327 ) ;
#356 = VECTOR ( 'NONE', #98, 1000.000000000000000 ) ;
#357 = PLANE ( 'NONE',  #260 ) ;
#358 = DIRECTION ( 'NONE',  ( 0.0000000000000000000, 0.0000000000000000000, 1.000000000000000000 ) ) ;
#359 = APPLICATION_CONTEXT ( 'configuration controlled 3d designs of mechanical parts and assemblies' ) ;
#360 = EDGE_CURVE ( 'NONE', #364, #210, #323, .T. ) ;
#361 = CARTESIAN_POINT ( 'NONE',  ( 148.0000000000000000, -7.999252848662744775, 0.0000000000000000000 ) ) ;
#362 = ORIENTED_EDGE ( 'NONE', *, *, #63, .T. ) ;
#363 = PRODUCT ( 'Planche de derrière', 'Planche de derrière', '', ( #119 ) ) ;
#364 = VERTEX_POINT ( 'NONE', #253 ) ;
#365 = CC_DESIGN_PERSON_AND_ORGANIZATION_ASSIGNMENT ( #109, #117, ( #66 ) ) ;
#366 = CALENDAR_DATE ( 2019, 3, 10 ) ;
#367 = VECTOR ( 'NONE', #315, 1000.000000000000000 ) ;
#368 = EDGE_CURVE ( 'NONE', #60, #328, #261, .T. ) ;
#369 = CARTESIAN_POINT ( 'NONE',  ( -148.0000000000000000, -7.999252848662744775, 3.000000000000000000 ) ) ;
ENDSEC;
END-ISO-10303-21;
