ISO-10303-21;
HEADER;
/* Generated by software containing ST-Developer
 * from STEP Tools, Inc. (www.steptools.com) 
 */

FILE_DESCRIPTION(
/* description */ (''),
/* implementation_level */ '2;1');

FILE_NAME(
/* name */ 'C:/Users/tetit/Desktop/Axes de roue v2.step',
/* time_stamp */ '2019-10-23T09:28:18+02:00',
/* author */ (''),
/* organization */ (''),
/* preprocessor_version */ 'ST-DEVELOPER v18',
/* originating_system */ 'Autodesk Translation Framework v8.6.0.1094',
/* authorisation */ '');

FILE_SCHEMA (('AUTOMOTIVE_DESIGN { 1 0 10303 214 3 1 1 }'));
ENDSEC;

DATA;
#10=MECHANICAL_DESIGN_GEOMETRIC_PRESENTATION_REPRESENTATION('',(#13),#323);
#11=SHAPE_REPRESENTATION_RELATIONSHIP('SRR','None',#330,#12);
#12=ADVANCED_BREP_SHAPE_REPRESENTATION('',(#14),#322);
#13=STYLED_ITEM('',(#339),#14);
#14=MANIFOLD_SOLID_BREP('Body1',#144);
#15=PLANE('',#171);
#16=PLANE('',#172);
#17=FACE_BOUND('',#41,.T.);
#18=FACE_BOUND('',#43,.T.);
#19=FACE_BOUND('',#45,.T.);
#20=CONICAL_SURFACE('',#164,2.56843368394535,1.02974425867665);
#21=CIRCLE('',#160,3.05);
#22=CIRCLE('',#161,3.05);
#23=CIRCLE('',#162,3.05);
#24=CIRCLE('',#163,3.05);
#25=CIRCLE('',#165,5.13675);
#26=CIRCLE('',#167,5.13675);
#27=CIRCLE('',#169,7.495);
#28=CIRCLE('',#170,7.495);
#29=FACE_OUTER_BOUND('',#36,.T.);
#30=FACE_OUTER_BOUND('',#37,.T.);
#31=FACE_OUTER_BOUND('',#38,.T.);
#32=FACE_OUTER_BOUND('',#39,.T.);
#33=FACE_OUTER_BOUND('',#40,.T.);
#34=FACE_OUTER_BOUND('',#42,.T.);
#35=FACE_OUTER_BOUND('',#44,.T.);
#36=EDGE_LOOP('',(#95,#96,#97,#98,#99,#100,#101));
#37=EDGE_LOOP('',(#102,#103,#104,#105,#106,#107,#108,#109,#110,#111,#112,
#113));
#38=EDGE_LOOP('',(#114,#115,#116,#117,#118));
#39=EDGE_LOOP('',(#119,#120,#121,#122));
#40=EDGE_LOOP('',(#123,#124,#125,#126));
#41=EDGE_LOOP('',(#127));
#42=EDGE_LOOP('',(#128));
#43=EDGE_LOOP('',(#129,#130));
#44=EDGE_LOOP('',(#131));
#45=EDGE_LOOP('',(#132));
#46=LINE('',#248,#52);
#47=LINE('',#298,#53);
#48=LINE('',#300,#54);
#49=LINE('',#307,#55);
#50=LINE('',#311,#56);
#51=LINE('',#316,#57);
#52=VECTOR('',#177,1.2645);
#53=VECTOR('',#184,3.05);
#54=VECTOR('',#185,3.05);
#55=VECTOR('',#194,2.5685);
#56=VECTOR('',#199,5.137);
#57=VECTOR('',#204,7.495);
#58=B_SPLINE_CURVE_WITH_KNOTS('',3,(#215,#216,#217,#218,#219,#220,#221,
#222,#223,#224),.UNSPECIFIED.,.F.,.F.,(4,2,2,2,4),(0.,0.048300301233929,
0.0966006024678581,0.144843797781175,0.193086993094491),.UNSPECIFIED.);
#59=B_SPLINE_CURVE_WITH_KNOTS('',3,(#226,#227,#228,#229,#230,#231,#232,
#233,#234,#235),.UNSPECIFIED.,.F.,.F.,(4,2,2,2,4),(0.579260979283474,0.627504174596791,
0.675747369910108,0.724047671144037,0.772347972377966),.UNSPECIFIED.);
#60=B_SPLINE_CURVE_WITH_KNOTS('',3,(#237,#238,#239,#240,#241,#242,#243,
#244,#245,#246),.UNSPECIFIED.,.F.,.F.,(4,2,2,2,4),(0.386173986188983,0.434474287422912,
0.482774588656841,0.531017783970158,0.579260979283474),.UNSPECIFIED.);
#61=B_SPLINE_CURVE_WITH_KNOTS('',3,(#249,#250,#251,#252,#253,#254,#255,
#256,#257,#258,#259,#260,#261,#262,#263,#264,#265,#266,#267,#268,#269,#270,
#271,#272,#273,#274,#275,#276,#277,#278,#279,#280,#281,#282),
 .UNSPECIFIED.,.T.,.F.,(4,2,2,2,2,2,2,2,2,2,2,2,2,2,2,2,4),(0.,0.0477309378569317,
0.0954618757138634,0.143191474099647,0.190921072485431,0.238650670871214,
0.286380269256998,0.33411120711393,0.381842144970861,0.429573082827793,
0.477304020684725,0.525033619070508,0.572763217456292,0.620492815842076,
0.66822241422786,0.715953352084791,0.763684289941723),.UNSPECIFIED.);
#62=B_SPLINE_CURVE_WITH_KNOTS('',3,(#283,#284,#285,#286,#287,#288,#289,
#290,#291,#292),.UNSPECIFIED.,.F.,.F.,(4,2,2,2,4),(0.193086993094491,0.241330188407808,
0.289573383721125,0.337873684955054,0.386173986188983),.UNSPECIFIED.);
#63=VERTEX_POINT('',#213);
#64=VERTEX_POINT('',#214);
#65=VERTEX_POINT('',#225);
#66=VERTEX_POINT('',#236);
#67=VERTEX_POINT('',#247);
#68=VERTEX_POINT('',#294);
#69=VERTEX_POINT('',#295);
#70=VERTEX_POINT('',#299);
#71=VERTEX_POINT('',#301);
#72=VERTEX_POINT('',#305);
#73=VERTEX_POINT('',#309);
#74=VERTEX_POINT('',#313);
#75=VERTEX_POINT('',#315);
#76=EDGE_CURVE('',#63,#64,#58,.T.);
#77=EDGE_CURVE('',#65,#63,#59,.T.);
#78=EDGE_CURVE('',#66,#65,#60,.T.);
#79=EDGE_CURVE('',#66,#67,#46,.T.);
#80=EDGE_CURVE('',#67,#67,#61,.T.);
#81=EDGE_CURVE('',#64,#66,#62,.T.);
#82=EDGE_CURVE('',#68,#69,#21,.T.);
#83=EDGE_CURVE('',#69,#68,#22,.T.);
#84=EDGE_CURVE('',#69,#65,#47,.T.);
#85=EDGE_CURVE('',#64,#70,#48,.T.);
#86=EDGE_CURVE('',#71,#70,#23,.T.);
#87=EDGE_CURVE('',#70,#71,#24,.T.);
#88=EDGE_CURVE('',#72,#72,#25,.T.);
#89=EDGE_CURVE('',#72,#71,#49,.T.);
#90=EDGE_CURVE('',#73,#73,#26,.F.);
#91=EDGE_CURVE('',#73,#72,#50,.T.);
#92=EDGE_CURVE('',#74,#74,#27,.T.);
#93=EDGE_CURVE('',#74,#75,#51,.T.);
#94=EDGE_CURVE('',#75,#75,#28,.T.);
#95=ORIENTED_EDGE('',*,*,#76,.F.);
#96=ORIENTED_EDGE('',*,*,#77,.F.);
#97=ORIENTED_EDGE('',*,*,#78,.F.);
#98=ORIENTED_EDGE('',*,*,#79,.T.);
#99=ORIENTED_EDGE('',*,*,#80,.F.);
#100=ORIENTED_EDGE('',*,*,#79,.F.);
#101=ORIENTED_EDGE('',*,*,#81,.F.);
#102=ORIENTED_EDGE('',*,*,#82,.F.);
#103=ORIENTED_EDGE('',*,*,#83,.F.);
#104=ORIENTED_EDGE('',*,*,#84,.T.);
#105=ORIENTED_EDGE('',*,*,#77,.T.);
#106=ORIENTED_EDGE('',*,*,#76,.T.);
#107=ORIENTED_EDGE('',*,*,#85,.T.);
#108=ORIENTED_EDGE('',*,*,#86,.F.);
#109=ORIENTED_EDGE('',*,*,#87,.F.);
#110=ORIENTED_EDGE('',*,*,#85,.F.);
#111=ORIENTED_EDGE('',*,*,#81,.T.);
#112=ORIENTED_EDGE('',*,*,#78,.T.);
#113=ORIENTED_EDGE('',*,*,#84,.F.);
#114=ORIENTED_EDGE('',*,*,#88,.F.);
#115=ORIENTED_EDGE('',*,*,#89,.T.);
#116=ORIENTED_EDGE('',*,*,#86,.T.);
#117=ORIENTED_EDGE('',*,*,#87,.T.);
#118=ORIENTED_EDGE('',*,*,#89,.F.);
#119=ORIENTED_EDGE('',*,*,#90,.F.);
#120=ORIENTED_EDGE('',*,*,#91,.T.);
#121=ORIENTED_EDGE('',*,*,#88,.T.);
#122=ORIENTED_EDGE('',*,*,#91,.F.);
#123=ORIENTED_EDGE('',*,*,#92,.F.);
#124=ORIENTED_EDGE('',*,*,#93,.T.);
#125=ORIENTED_EDGE('',*,*,#94,.T.);
#126=ORIENTED_EDGE('',*,*,#93,.F.);
#127=ORIENTED_EDGE('',*,*,#80,.T.);
#128=ORIENTED_EDGE('',*,*,#92,.T.);
#129=ORIENTED_EDGE('',*,*,#82,.T.);
#130=ORIENTED_EDGE('',*,*,#83,.T.);
#131=ORIENTED_EDGE('',*,*,#94,.F.);
#132=ORIENTED_EDGE('',*,*,#90,.T.);
#133=CYLINDRICAL_SURFACE('',#158,1.2645);
#134=CYLINDRICAL_SURFACE('',#159,3.05);
#135=CYLINDRICAL_SURFACE('',#166,5.13675);
#136=CYLINDRICAL_SURFACE('',#168,7.495);
#137=ADVANCED_FACE('',(#29),#133,.F.);
#138=ADVANCED_FACE('',(#30),#134,.F.);
#139=ADVANCED_FACE('',(#31),#20,.F.);
#140=ADVANCED_FACE('',(#32),#135,.F.);
#141=ADVANCED_FACE('',(#33,#17),#136,.T.);
#142=ADVANCED_FACE('',(#34,#18),#15,.T.);
#143=ADVANCED_FACE('',(#35,#19),#16,.F.);
#144=CLOSED_SHELL('',(#137,#138,#139,#140,#141,#142,#143));
#145=DERIVED_UNIT_ELEMENT(#147,1.);
#146=DERIVED_UNIT_ELEMENT(#325,3.);
#147=(
MASS_UNIT()
NAMED_UNIT(*)
SI_UNIT(.KILO.,.GRAM.)
);
#148=DERIVED_UNIT((#145,#146));
#149=MEASURE_REPRESENTATION_ITEM('density measure',
POSITIVE_RATIO_MEASURE(7850.),#148);
#150=PROPERTY_DEFINITION_REPRESENTATION(#155,#152);
#151=PROPERTY_DEFINITION_REPRESENTATION(#156,#153);
#152=REPRESENTATION('material name',(#154),#322);
#153=REPRESENTATION('density',(#149),#322);
#154=DESCRIPTIVE_REPRESENTATION_ITEM('Steel','Steel');
#155=PROPERTY_DEFINITION('material property','material name',#332);
#156=PROPERTY_DEFINITION('material property','density of part',#332);
#157=AXIS2_PLACEMENT_3D('placement',#211,#173,#174);
#158=AXIS2_PLACEMENT_3D('',#212,#175,#176);
#159=AXIS2_PLACEMENT_3D('',#293,#178,#179);
#160=AXIS2_PLACEMENT_3D('',#296,#180,#181);
#161=AXIS2_PLACEMENT_3D('',#297,#182,#183);
#162=AXIS2_PLACEMENT_3D('',#302,#186,#187);
#163=AXIS2_PLACEMENT_3D('',#303,#188,#189);
#164=AXIS2_PLACEMENT_3D('',#304,#190,#191);
#165=AXIS2_PLACEMENT_3D('',#306,#192,#193);
#166=AXIS2_PLACEMENT_3D('',#308,#195,#196);
#167=AXIS2_PLACEMENT_3D('',#310,#197,#198);
#168=AXIS2_PLACEMENT_3D('',#312,#200,#201);
#169=AXIS2_PLACEMENT_3D('',#314,#202,#203);
#170=AXIS2_PLACEMENT_3D('',#317,#205,#206);
#171=AXIS2_PLACEMENT_3D('',#318,#207,#208);
#172=AXIS2_PLACEMENT_3D('',#319,#209,#210);
#173=DIRECTION('axis',(0.,0.,1.));
#174=DIRECTION('refdir',(1.,0.,0.));
#175=DIRECTION('center_axis',(0.,0.,-1.));
#176=DIRECTION('ref_axis',(1.,0.,0.));
#177=DIRECTION('',(0.,0.,-1.));
#178=DIRECTION('center_axis',(0.,-1.,0.));
#179=DIRECTION('ref_axis',(0.,0.,1.));
#180=DIRECTION('center_axis',(0.,-1.,0.));
#181=DIRECTION('ref_axis',(0.,0.,1.));
#182=DIRECTION('center_axis',(0.,-1.,0.));
#183=DIRECTION('ref_axis',(0.,0.,1.));
#184=DIRECTION('',(0.,-1.,0.));
#185=DIRECTION('',(0.,-1.,0.));
#186=DIRECTION('center_axis',(0.,1.,0.));
#187=DIRECTION('ref_axis',(0.,0.,1.));
#188=DIRECTION('center_axis',(0.,1.,0.));
#189=DIRECTION('ref_axis',(0.,0.,1.));
#190=DIRECTION('center_axis',(0.,-1.,0.));
#191=DIRECTION('ref_axis',(0.,0.,-1.));
#192=DIRECTION('center_axis',(0.,1.,0.));
#193=DIRECTION('ref_axis',(0.,0.,-1.));
#194=DIRECTION('',(-1.04972719113862E-16,0.515038074910054,-0.857167300702112));
#195=DIRECTION('center_axis',(0.,1.,0.));
#196=DIRECTION('ref_axis',(0.,0.,-1.));
#197=DIRECTION('center_axis',(0.,-1.,0.));
#198=DIRECTION('ref_axis',(0.,0.,-1.));
#199=DIRECTION('',(0.,1.,0.));
#200=DIRECTION('center_axis',(0.,1.,0.));
#201=DIRECTION('ref_axis',(1.,0.,0.));
#202=DIRECTION('center_axis',(0.,1.,0.));
#203=DIRECTION('ref_axis',(1.,0.,0.));
#204=DIRECTION('',(0.,-1.,0.));
#205=DIRECTION('center_axis',(0.,1.,0.));
#206=DIRECTION('ref_axis',(1.,0.,0.));
#207=DIRECTION('center_axis',(0.,1.,0.));
#208=DIRECTION('ref_axis',(1.,0.,0.));
#209=DIRECTION('center_axis',(0.,1.,0.));
#210=DIRECTION('ref_axis',(1.,0.,0.));
#211=CARTESIAN_POINT('',(0.,0.,0.));
#212=CARTESIAN_POINT('Origin',(0.,26.000000461936,-4.));
#213=CARTESIAN_POINT('',(1.2645,26.000000461936,-2.77552513049333));
#214=CARTESIAN_POINT('',(1.9406474821549E-16,24.735500461936,-3.05));
#215=CARTESIAN_POINT('Ctrl Pts',(1.2645,26.000000461936,-2.77552513049333));
#216=CARTESIAN_POINT('Ctrl Pts',(1.2645,25.8389994578229,-2.77552513049333));
#217=CARTESIAN_POINT('Ctrl Pts',(1.23192438529806,25.6688275045954,-2.79101795491332));
#218=CARTESIAN_POINT('Ctrl Pts',(1.10233317757258,25.357991714669,-2.84469332496858));
#219=CARTESIAN_POINT('Ctrl Pts',(1.00539621658386,25.2171236288991,-2.88187804252553));
#220=CARTESIAN_POINT('Ctrl Pts',(0.783008376463432,24.9947357887786,-2.95006923351341));
#221=CARTESIAN_POINT('Ctrl Pts',(0.642091169041169,24.8976994606625,-2.9858056601121));
#222=CARTESIAN_POINT('Ctrl Pts',(0.331061200890899,24.7680316705558,-3.03606900355333));
#223=CARTESIAN_POINT('Ctrl Pts',(0.160810651044389,24.735500461936,-3.05));
#224=CARTESIAN_POINT('Ctrl Pts',(-3.46944695195361E-17,24.735500461936,
-3.05));
#225=CARTESIAN_POINT('',(2.46106452494795E-16,27.264500461936,-3.05));
#226=CARTESIAN_POINT('Ctrl Pts',(-1.04083408558608E-16,27.264500461936,
-3.05));
#227=CARTESIAN_POINT('Ctrl Pts',(0.160810651044389,27.264500461936,-3.05));
#228=CARTESIAN_POINT('Ctrl Pts',(0.331061200890899,27.2319692533162,-3.03606900355333));
#229=CARTESIAN_POINT('Ctrl Pts',(0.642091169041169,27.1023014632095,-2.9858056601121));
#230=CARTESIAN_POINT('Ctrl Pts',(0.783008376463432,27.0052651350933,-2.95006923351341));
#231=CARTESIAN_POINT('Ctrl Pts',(1.00539621658386,26.7828772949729,-2.88187804252553));
#232=CARTESIAN_POINT('Ctrl Pts',(1.10233317757258,26.642009209203,-2.84469332496858));
#233=CARTESIAN_POINT('Ctrl Pts',(1.23192438529806,26.3311734192766,-2.79101795491332));
#234=CARTESIAN_POINT('Ctrl Pts',(1.2645,26.1610014660491,-2.77552513049333));
#235=CARTESIAN_POINT('Ctrl Pts',(1.2645,26.000000461936,-2.77552513049333));
#236=CARTESIAN_POINT('',(-1.2645,26.000000461936,-2.77552513049333));
#237=CARTESIAN_POINT('Ctrl Pts',(-1.2645,26.000000461936,-2.77552513049333));
#238=CARTESIAN_POINT('Ctrl Pts',(-1.2645,26.1610014660491,-2.77552513049333));
#239=CARTESIAN_POINT('Ctrl Pts',(-1.23192438529806,26.3311734192766,-2.79101795491332));
#240=CARTESIAN_POINT('Ctrl Pts',(-1.10233317757258,26.642009209203,-2.84469332496858));
#241=CARTESIAN_POINT('Ctrl Pts',(-1.00539621658386,26.7828772949729,-2.88187804252553));
#242=CARTESIAN_POINT('Ctrl Pts',(-0.783008376463432,27.0052651350933,-2.95006923351341));
#243=CARTESIAN_POINT('Ctrl Pts',(-0.642091169041169,27.1023014632095,-2.9858056601121));
#244=CARTESIAN_POINT('Ctrl Pts',(-0.331061200890899,27.2319692533162,-3.03606900355333));
#245=CARTESIAN_POINT('Ctrl Pts',(-0.160810651044388,27.264500461936,-3.05));
#246=CARTESIAN_POINT('Ctrl Pts',(4.16333634234434E-16,27.264500461936,-3.05));
#247=CARTESIAN_POINT('',(-1.2645,26.000000461936,-7.3875614887458));
#248=CARTESIAN_POINT('',(-1.2645,26.000000461936,-4.));
#249=CARTESIAN_POINT('Ctrl Pts',(-1.2645,26.000000461936,-7.3875614887458));
#250=CARTESIAN_POINT('Ctrl Pts',(-1.2645,25.8408973357462,-7.3875614887458));
#251=CARTESIAN_POINT('Ctrl Pts',(-1.23264077768451,25.6714017507196,-7.39323304331711));
#252=CARTESIAN_POINT('Ctrl Pts',(-1.10350042780285,25.3599479108169,-7.41360808732329));
#253=CARTESIAN_POINT('Ctrl Pts',(-1.00623554657714,25.2179629588924,-7.4280052934073));
#254=CARTESIAN_POINT('Ctrl Pts',(-0.782040648873413,24.9937680611886,-7.45494361629453));
#255=CARTESIAN_POINT('Ctrl Pts',(-0.640054347240724,24.8965007125709,-7.46925088088887));
#256=CARTESIAN_POINT('Ctrl Pts',(-0.328595867481149,24.7673585714343,-7.48941940632314));
#257=CARTESIAN_POINT('Ctrl Pts',(-0.159098661285945,24.735500461936,-7.495));
#258=CARTESIAN_POINT('Ctrl Pts',(0.159098661285946,24.735500461936,-7.495));
#259=CARTESIAN_POINT('Ctrl Pts',(0.328595867481149,24.7673585714343,-7.48941940632314));
#260=CARTESIAN_POINT('Ctrl Pts',(0.640054347240725,24.8965007125709,-7.46925088088886));
#261=CARTESIAN_POINT('Ctrl Pts',(0.782040648873414,24.9937680611886,-7.45494361629453));
#262=CARTESIAN_POINT('Ctrl Pts',(1.00623554657714,25.2179629588924,-7.4280052934073));
#263=CARTESIAN_POINT('Ctrl Pts',(1.10350042780285,25.3599479108169,-7.41360808732329));
#264=CARTESIAN_POINT('Ctrl Pts',(1.23264077768451,25.6714017507196,-7.39323304331711));
#265=CARTESIAN_POINT('Ctrl Pts',(1.2645,25.8408973357462,-7.3875614887458));
#266=CARTESIAN_POINT('Ctrl Pts',(1.2645,26.1591035881258,-7.3875614887458));
#267=CARTESIAN_POINT('Ctrl Pts',(1.23264077768451,26.3285991731524,-7.39323304331711));
#268=CARTESIAN_POINT('Ctrl Pts',(1.10350042780285,26.640053013055,-7.41360808732329));
#269=CARTESIAN_POINT('Ctrl Pts',(1.00623554657714,26.7820379649796,-7.4280052934073));
#270=CARTESIAN_POINT('Ctrl Pts',(0.782040648873413,27.0062328626834,-7.45494361629453));
#271=CARTESIAN_POINT('Ctrl Pts',(0.640054347240724,27.1035002113011,-7.46925088088887));
#272=CARTESIAN_POINT('Ctrl Pts',(0.328595867481149,27.2326423524376,-7.48941940632314));
#273=CARTESIAN_POINT('Ctrl Pts',(0.159098661285945,27.264500461936,-7.495));
#274=CARTESIAN_POINT('Ctrl Pts',(-0.159098661285946,27.264500461936,-7.495));
#275=CARTESIAN_POINT('Ctrl Pts',(-0.32859586748115,27.2326423524377,-7.48941940632314));
#276=CARTESIAN_POINT('Ctrl Pts',(-0.640054347240725,27.1035002113011,-7.46925088088887));
#277=CARTESIAN_POINT('Ctrl Pts',(-0.782040648873414,27.0062328626834,-7.45494361629453));
#278=CARTESIAN_POINT('Ctrl Pts',(-1.00623554657714,26.7820379649796,-7.4280052934073));
#279=CARTESIAN_POINT('Ctrl Pts',(-1.10350042780285,26.640053013055,-7.41360808732329));
#280=CARTESIAN_POINT('Ctrl Pts',(-1.23264077768451,26.3285991731524,-7.39323304331711));
#281=CARTESIAN_POINT('Ctrl Pts',(-1.2645,26.1591035881258,-7.3875614887458));
#282=CARTESIAN_POINT('Ctrl Pts',(-1.2645,26.000000461936,-7.3875614887458));
#283=CARTESIAN_POINT('Ctrl Pts',(-3.46944695195361E-16,24.735500461936,
-3.05));
#284=CARTESIAN_POINT('Ctrl Pts',(-0.160810651044389,24.735500461936,-3.05));
#285=CARTESIAN_POINT('Ctrl Pts',(-0.331061200890899,24.7680316705558,-3.03606900355333));
#286=CARTESIAN_POINT('Ctrl Pts',(-0.642091169041169,24.8976994606625,-2.9858056601121));
#287=CARTESIAN_POINT('Ctrl Pts',(-0.783008376463432,24.9947357887786,-2.95006923351341));
#288=CARTESIAN_POINT('Ctrl Pts',(-1.00539621658386,25.2171236288991,-2.88187804252553));
#289=CARTESIAN_POINT('Ctrl Pts',(-1.10233317757258,25.357991714669,-2.84469332496858));
#290=CARTESIAN_POINT('Ctrl Pts',(-1.23192438529806,25.6688275045954,-2.79101795491332));
#291=CARTESIAN_POINT('Ctrl Pts',(-1.2645,25.8389994578229,-2.77552513049333));
#292=CARTESIAN_POINT('Ctrl Pts',(-1.2645,26.000000461936,-2.77552513049333));
#293=CARTESIAN_POINT('Origin',(2.92167978847327E-16,21.,0.));
#294=CARTESIAN_POINT('',(2.92167978847327E-16,31.,3.05));
#295=CARTESIAN_POINT('',(6.6568525258727E-16,31.,-3.05));
#296=CARTESIAN_POINT('Origin',(2.92167978847327E-16,31.,0.));
#297=CARTESIAN_POINT('Origin',(2.92167978847327E-16,31.,0.));
#298=CARTESIAN_POINT('',(6.6568525258727E-16,21.,-3.05));
#299=CARTESIAN_POINT('',(-8.13492948926155E-17,21.2538458967558,-3.05));
#300=CARTESIAN_POINT('',(6.6568525258727E-16,21.,-3.05));
#301=CARTESIAN_POINT('',(6.6568525258727E-16,21.2538458967558,3.05));
#302=CARTESIAN_POINT('Origin',(2.92167978847327E-16,21.2538458967558,0.));
#303=CARTESIAN_POINT('Origin',(2.92167978847327E-16,21.2538458967558,0.));
#304=CARTESIAN_POINT('Origin',(2.92167978847327E-16,21.5432001315232,0.));
#305=CARTESIAN_POINT('',(9.21238423399344E-16,20.,5.13675));
#306=CARTESIAN_POINT('Origin',(2.92167978847327E-16,20.,0.));
#307=CARTESIAN_POINT('',(6.06710387833919E-16,21.5432001315232,2.56843368394535));
#308=CARTESIAN_POINT('Origin',(2.92167978847327E-16,10.,0.));
#309=CARTESIAN_POINT('',(-3.36902465704689E-16,0.,5.13675));
#310=CARTESIAN_POINT('Origin',(2.92167978847327E-16,0.,0.));
#311=CARTESIAN_POINT('',(9.21238423399344E-16,10.,5.13675));
#312=CARTESIAN_POINT('Origin',(0.,0.,0.));
#313=CARTESIAN_POINT('',(-7.495,31.,9.17872775960941E-16));
#314=CARTESIAN_POINT('Origin',(0.,31.,0.));
#315=CARTESIAN_POINT('',(-7.495,0.,9.17872775960941E-16));
#316=CARTESIAN_POINT('',(-7.495,0.,9.17872775960941E-16));
#317=CARTESIAN_POINT('Origin',(0.,0.,0.));
#318=CARTESIAN_POINT('Origin',(0.,31.,0.));
#319=CARTESIAN_POINT('Origin',(0.,0.,0.));
#320=UNCERTAINTY_MEASURE_WITH_UNIT(LENGTH_MEASURE(0.01),#324,
'DISTANCE_ACCURACY_VALUE',
'Maximum model space distance between geometric entities at asserted c
onnectivities');
#321=UNCERTAINTY_MEASURE_WITH_UNIT(LENGTH_MEASURE(0.01),#324,
'DISTANCE_ACCURACY_VALUE',
'Maximum model space distance between geometric entities at asserted c
onnectivities');
#322=(
GEOMETRIC_REPRESENTATION_CONTEXT(3)
GLOBAL_UNCERTAINTY_ASSIGNED_CONTEXT((#320))
GLOBAL_UNIT_ASSIGNED_CONTEXT((#324,#326,#327))
REPRESENTATION_CONTEXT('','3D')
);
#323=(
GEOMETRIC_REPRESENTATION_CONTEXT(3)
GLOBAL_UNCERTAINTY_ASSIGNED_CONTEXT((#321))
GLOBAL_UNIT_ASSIGNED_CONTEXT((#324,#326,#327))
REPRESENTATION_CONTEXT('','3D')
);
#324=(
LENGTH_UNIT()
NAMED_UNIT(*)
SI_UNIT(.MILLI.,.METRE.)
);
#325=(
LENGTH_UNIT()
NAMED_UNIT(*)
SI_UNIT($,.METRE.)
);
#326=(
NAMED_UNIT(*)
PLANE_ANGLE_UNIT()
SI_UNIT($,.RADIAN.)
);
#327=(
NAMED_UNIT(*)
SI_UNIT($,.STERADIAN.)
SOLID_ANGLE_UNIT()
);
#328=SHAPE_DEFINITION_REPRESENTATION(#329,#330);
#329=PRODUCT_DEFINITION_SHAPE('',$,#332);
#330=SHAPE_REPRESENTATION('',(#157),#322);
#331=PRODUCT_DEFINITION_CONTEXT('part definition',#336,'design');
#332=PRODUCT_DEFINITION('Axes de roue','Axes de roue v3',#333,#331);
#333=PRODUCT_DEFINITION_FORMATION('',$,#338);
#334=PRODUCT_RELATED_PRODUCT_CATEGORY('Axes de roue v3',
'Axes de roue v3',(#338));
#335=APPLICATION_PROTOCOL_DEFINITION('international standard',
'automotive_design',2009,#336);
#336=APPLICATION_CONTEXT(
'Core Data for Automotive Mechanical Design Process');
#337=PRODUCT_CONTEXT('part definition',#336,'mechanical');
#338=PRODUCT('Axes de roue','Axes de roue v3',$,(#337));
#339=PRESENTATION_STYLE_ASSIGNMENT((#340));
#340=SURFACE_STYLE_USAGE(.BOTH.,#341);
#341=SURFACE_SIDE_STYLE('',(#342));
#342=SURFACE_STYLE_FILL_AREA(#343);
#343=FILL_AREA_STYLE('Steel - Satin',(#344));
#344=FILL_AREA_STYLE_COLOUR('Steel - Satin',#345);
#345=COLOUR_RGB('Steel - Satin',0.627450980392157,0.627450980392157,0.627450980392157);
ENDSEC;
END-ISO-10303-21;
