ISO-10303-21;
HEADER;
/* Generated by software containing ST-Developer
 * from STEP Tools, Inc. (www.steptools.com) 
 */

FILE_DESCRIPTION(
/* description */ (''),
/* implementation_level */ '2;1');

FILE_NAME(
/* name */ 
'C:\\Users\\louis.petitjean\\Desktop\\GSE-1201-000-000-A Thruster Bala
nce\\Measurement subsystem\\GSE-1201-022-001-A (Support capteur M6).st
p',
/* time_stamp */ '2019-10-24T11:47:14+02:00',
/* author */ ('louis.petitjean'),
/* organization */ (''),
/* preprocessor_version */ 'ST-DEVELOPER v18',
/* originating_system */ 'Autodesk Inventor 2020',
/* authorisation */ '');

FILE_SCHEMA (('AUTOMOTIVE_DESIGN { 1 0 10303 214 3 1 1 }'));
ENDSEC;

DATA;
#10=MECHANICAL_DESIGN_GEOMETRIC_PRESENTATION_REPRESENTATION('',(#13),#580);
#11=SHAPE_REPRESENTATION_RELATIONSHIP('SRR','None',#587,#12);
#12=ADVANCED_BREP_SHAPE_REPRESENTATION('',(#14),#579);
#13=STYLED_ITEM('',(#596),#14);
#14=MANIFOLD_SOLID_BREP('Solide1',#341);
#15=FACE_BOUND('',#50,.T.);
#16=FACE_BOUND('',#61,.T.);
#17=FACE_BOUND('',#66,.T.);
#18=FACE_BOUND('',#68,.T.);
#19=PLANE('',#364);
#20=PLANE('',#369);
#21=PLANE('',#373);
#22=PLANE('',#377);
#23=PLANE('',#381);
#24=PLANE('',#382);
#25=PLANE('',#383);
#26=PLANE('',#384);
#27=PLANE('',#385);
#28=PLANE('',#386);
#29=PLANE('',#387);
#30=PLANE('',#388);
#31=FACE_OUTER_BOUND('',#48,.T.);
#32=FACE_OUTER_BOUND('',#49,.T.);
#33=FACE_OUTER_BOUND('',#51,.T.);
#34=FACE_OUTER_BOUND('',#52,.T.);
#35=FACE_OUTER_BOUND('',#53,.T.);
#36=FACE_OUTER_BOUND('',#54,.T.);
#37=FACE_OUTER_BOUND('',#55,.T.);
#38=FACE_OUTER_BOUND('',#56,.T.);
#39=FACE_OUTER_BOUND('',#57,.T.);
#40=FACE_OUTER_BOUND('',#58,.T.);
#41=FACE_OUTER_BOUND('',#59,.T.);
#42=FACE_OUTER_BOUND('',#60,.T.);
#43=FACE_OUTER_BOUND('',#62,.T.);
#44=FACE_OUTER_BOUND('',#63,.T.);
#45=FACE_OUTER_BOUND('',#64,.T.);
#46=FACE_OUTER_BOUND('',#65,.T.);
#47=FACE_OUTER_BOUND('',#67,.T.);
#48=EDGE_LOOP('',(#227,#228,#229,#230));
#49=EDGE_LOOP('',(#231,#232,#233,#234));
#50=EDGE_LOOP('',(#235));
#51=EDGE_LOOP('',(#236,#237,#238,#239));
#52=EDGE_LOOP('',(#240,#241,#242,#243));
#53=EDGE_LOOP('',(#244,#245,#246,#247));
#54=EDGE_LOOP('',(#248,#249,#250,#251));
#55=EDGE_LOOP('',(#252,#253,#254,#255));
#56=EDGE_LOOP('',(#256,#257,#258,#259));
#57=EDGE_LOOP('',(#260,#261,#262,#263,#264));
#58=EDGE_LOOP('',(#265,#266,#267,#268));
#59=EDGE_LOOP('',(#269,#270,#271,#272));
#60=EDGE_LOOP('',(#273,#274,#275,#276));
#61=EDGE_LOOP('',(#277,#278));
#62=EDGE_LOOP('',(#279,#280,#281,#282,#283,#284,#285,#286,#287,#288));
#63=EDGE_LOOP('',(#289,#290,#291,#292));
#64=EDGE_LOOP('',(#293,#294,#295,#296,#297,#298,#299,#300,#301,#302));
#65=EDGE_LOOP('',(#303,#304,#305,#306));
#66=EDGE_LOOP('',(#307,#308,#309,#310));
#67=EDGE_LOOP('',(#311,#312,#313,#314));
#68=EDGE_LOOP('',(#315,#316,#317,#318));
#69=LINE('',#488,#104);
#70=LINE('',#491,#105);
#71=LINE('',#494,#106);
#72=LINE('',#496,#107);
#73=LINE('',#497,#108);
#74=LINE('',#505,#109);
#75=LINE('',#508,#110);
#76=LINE('',#511,#111);
#77=LINE('',#513,#112);
#78=LINE('',#514,#113);
#79=LINE('',#520,#114);
#80=LINE('',#523,#115);
#81=LINE('',#526,#116);
#82=LINE('',#528,#117);
#83=LINE('',#529,#118);
#84=LINE('',#535,#119);
#85=LINE('',#537,#120);
#86=LINE('',#538,#121);
#87=LINE('',#544,#122);
#88=LINE('',#547,#123);
#89=LINE('',#549,#124);
#90=LINE('',#550,#125);
#91=LINE('',#553,#126);
#92=LINE('',#555,#127);
#93=LINE('',#556,#128);
#94=LINE('',#558,#129);
#95=LINE('',#559,#130);
#96=LINE('',#562,#131);
#97=LINE('',#564,#132);
#98=LINE('',#565,#133);
#99=LINE('',#568,#134);
#100=LINE('',#570,#135);
#101=LINE('',#571,#136);
#102=LINE('',#573,#137);
#103=LINE('',#574,#138);
#104=VECTOR('',#395,10.);
#105=VECTOR('',#398,10.);
#106=VECTOR('',#401,10.);
#107=VECTOR('',#402,10.);
#108=VECTOR('',#403,10.);
#109=VECTOR('',#410,10.);
#110=VECTOR('',#413,10.);
#111=VECTOR('',#416,10.);
#112=VECTOR('',#417,10.);
#113=VECTOR('',#418,10.);
#114=VECTOR('',#423,10.);
#115=VECTOR('',#426,10.);
#116=VECTOR('',#429,10.);
#117=VECTOR('',#430,10.);
#118=VECTOR('',#431,10.);
#119=VECTOR('',#438,10.);
#120=VECTOR('',#441,10.);
#121=VECTOR('',#442,10.);
#122=VECTOR('',#449,5.053);
#123=VECTOR('',#452,10.);
#124=VECTOR('',#453,10.);
#125=VECTOR('',#454,10.);
#126=VECTOR('',#457,10.);
#127=VECTOR('',#458,10.);
#128=VECTOR('',#459,10.);
#129=VECTOR('',#462,10.);
#130=VECTOR('',#463,10.);
#131=VECTOR('',#466,10.);
#132=VECTOR('',#467,10.);
#133=VECTOR('',#468,10.);
#134=VECTOR('',#471,10.);
#135=VECTOR('',#472,10.);
#136=VECTOR('',#473,10.);
#137=VECTOR('',#476,10.);
#138=VECTOR('',#477,10.);
#139=CIRCLE('',#362,2.);
#140=CIRCLE('',#363,2.);
#141=CIRCLE('',#365,5.053);
#142=CIRCLE('',#367,2.);
#143=CIRCLE('',#368,2.);
#144=CIRCLE('',#371,3.2);
#145=CIRCLE('',#372,3.2);
#146=CIRCLE('',#375,3.2);
#147=CIRCLE('',#376,3.2);
#148=CIRCLE('',#379,5.053);
#149=CIRCLE('',#380,5.053);
#150=VERTEX_POINT('',#484);
#151=VERTEX_POINT('',#485);
#152=VERTEX_POINT('',#487);
#153=VERTEX_POINT('',#489);
#154=VERTEX_POINT('',#493);
#155=VERTEX_POINT('',#495);
#156=VERTEX_POINT('',#498);
#157=VERTEX_POINT('',#501);
#158=VERTEX_POINT('',#502);
#159=VERTEX_POINT('',#504);
#160=VERTEX_POINT('',#506);
#161=VERTEX_POINT('',#510);
#162=VERTEX_POINT('',#512);
#163=VERTEX_POINT('',#516);
#164=VERTEX_POINT('',#517);
#165=VERTEX_POINT('',#519);
#166=VERTEX_POINT('',#521);
#167=VERTEX_POINT('',#525);
#168=VERTEX_POINT('',#527);
#169=VERTEX_POINT('',#531);
#170=VERTEX_POINT('',#533);
#171=VERTEX_POINT('',#540);
#172=VERTEX_POINT('',#541);
#173=VERTEX_POINT('',#546);
#174=VERTEX_POINT('',#548);
#175=VERTEX_POINT('',#552);
#176=VERTEX_POINT('',#554);
#177=VERTEX_POINT('',#561);
#178=VERTEX_POINT('',#563);
#179=VERTEX_POINT('',#567);
#180=VERTEX_POINT('',#569);
#181=EDGE_CURVE('',#150,#151,#139,.T.);
#182=EDGE_CURVE('',#151,#152,#69,.T.);
#183=EDGE_CURVE('',#152,#153,#140,.T.);
#184=EDGE_CURVE('',#153,#150,#70,.T.);
#185=EDGE_CURVE('',#151,#154,#71,.T.);
#186=EDGE_CURVE('',#155,#154,#72,.T.);
#187=EDGE_CURVE('',#152,#155,#73,.T.);
#188=EDGE_CURVE('',#156,#156,#141,.T.);
#189=EDGE_CURVE('',#157,#158,#142,.T.);
#190=EDGE_CURVE('',#158,#159,#74,.T.);
#191=EDGE_CURVE('',#159,#160,#143,.T.);
#192=EDGE_CURVE('',#160,#157,#75,.T.);
#193=EDGE_CURVE('',#158,#161,#76,.T.);
#194=EDGE_CURVE('',#162,#161,#77,.T.);
#195=EDGE_CURVE('',#159,#162,#78,.T.);
#196=EDGE_CURVE('',#163,#164,#144,.T.);
#197=EDGE_CURVE('',#165,#163,#79,.T.);
#198=EDGE_CURVE('',#166,#165,#145,.T.);
#199=EDGE_CURVE('',#166,#164,#80,.T.);
#200=EDGE_CURVE('',#164,#167,#81,.T.);
#201=EDGE_CURVE('',#168,#166,#82,.T.);
#202=EDGE_CURVE('',#168,#167,#83,.T.);
#203=EDGE_CURVE('',#167,#169,#146,.T.);
#204=EDGE_CURVE('',#170,#168,#147,.T.);
#205=EDGE_CURVE('',#170,#169,#84,.T.);
#206=EDGE_CURVE('',#169,#163,#85,.T.);
#207=EDGE_CURVE('',#165,#170,#86,.T.);
#208=EDGE_CURVE('',#171,#172,#148,.T.);
#209=EDGE_CURVE('',#172,#171,#149,.T.);
#210=EDGE_CURVE('',#172,#156,#87,.T.);
#211=EDGE_CURVE('',#154,#173,#88,.T.);
#212=EDGE_CURVE('',#173,#174,#89,.T.);
#213=EDGE_CURVE('',#174,#155,#90,.T.);
#214=EDGE_CURVE('',#175,#153,#91,.T.);
#215=EDGE_CURVE('',#176,#175,#92,.T.);
#216=EDGE_CURVE('',#176,#150,#93,.T.);
#217=EDGE_CURVE('',#162,#173,#94,.T.);
#218=EDGE_CURVE('',#161,#174,#95,.T.);
#219=EDGE_CURVE('',#175,#177,#96,.T.);
#220=EDGE_CURVE('',#178,#157,#97,.T.);
#221=EDGE_CURVE('',#177,#178,#98,.T.);
#222=EDGE_CURVE('',#177,#179,#99,.T.);
#223=EDGE_CURVE('',#180,#178,#100,.T.);
#224=EDGE_CURVE('',#179,#180,#101,.T.);
#225=EDGE_CURVE('',#179,#176,#102,.T.);
#226=EDGE_CURVE('',#160,#180,#103,.T.);
#227=ORIENTED_EDGE('',*,*,#181,.T.);
#228=ORIENTED_EDGE('',*,*,#182,.T.);
#229=ORIENTED_EDGE('',*,*,#183,.T.);
#230=ORIENTED_EDGE('',*,*,#184,.T.);
#231=ORIENTED_EDGE('',*,*,#182,.F.);
#232=ORIENTED_EDGE('',*,*,#185,.T.);
#233=ORIENTED_EDGE('',*,*,#186,.F.);
#234=ORIENTED_EDGE('',*,*,#187,.F.);
#235=ORIENTED_EDGE('',*,*,#188,.T.);
#236=ORIENTED_EDGE('',*,*,#189,.T.);
#237=ORIENTED_EDGE('',*,*,#190,.T.);
#238=ORIENTED_EDGE('',*,*,#191,.T.);
#239=ORIENTED_EDGE('',*,*,#192,.T.);
#240=ORIENTED_EDGE('',*,*,#190,.F.);
#241=ORIENTED_EDGE('',*,*,#193,.T.);
#242=ORIENTED_EDGE('',*,*,#194,.F.);
#243=ORIENTED_EDGE('',*,*,#195,.F.);
#244=ORIENTED_EDGE('',*,*,#196,.F.);
#245=ORIENTED_EDGE('',*,*,#197,.F.);
#246=ORIENTED_EDGE('',*,*,#198,.F.);
#247=ORIENTED_EDGE('',*,*,#199,.T.);
#248=ORIENTED_EDGE('',*,*,#200,.F.);
#249=ORIENTED_EDGE('',*,*,#199,.F.);
#250=ORIENTED_EDGE('',*,*,#201,.F.);
#251=ORIENTED_EDGE('',*,*,#202,.T.);
#252=ORIENTED_EDGE('',*,*,#203,.F.);
#253=ORIENTED_EDGE('',*,*,#202,.F.);
#254=ORIENTED_EDGE('',*,*,#204,.F.);
#255=ORIENTED_EDGE('',*,*,#205,.T.);
#256=ORIENTED_EDGE('',*,*,#206,.F.);
#257=ORIENTED_EDGE('',*,*,#205,.F.);
#258=ORIENTED_EDGE('',*,*,#207,.F.);
#259=ORIENTED_EDGE('',*,*,#197,.T.);
#260=ORIENTED_EDGE('',*,*,#208,.F.);
#261=ORIENTED_EDGE('',*,*,#209,.F.);
#262=ORIENTED_EDGE('',*,*,#210,.T.);
#263=ORIENTED_EDGE('',*,*,#188,.F.);
#264=ORIENTED_EDGE('',*,*,#210,.F.);
#265=ORIENTED_EDGE('',*,*,#186,.T.);
#266=ORIENTED_EDGE('',*,*,#211,.T.);
#267=ORIENTED_EDGE('',*,*,#212,.T.);
#268=ORIENTED_EDGE('',*,*,#213,.T.);
#269=ORIENTED_EDGE('',*,*,#184,.F.);
#270=ORIENTED_EDGE('',*,*,#214,.F.);
#271=ORIENTED_EDGE('',*,*,#215,.F.);
#272=ORIENTED_EDGE('',*,*,#216,.T.);
#273=ORIENTED_EDGE('',*,*,#217,.F.);
#274=ORIENTED_EDGE('',*,*,#194,.T.);
#275=ORIENTED_EDGE('',*,*,#218,.T.);
#276=ORIENTED_EDGE('',*,*,#212,.F.);
#277=ORIENTED_EDGE('',*,*,#208,.T.);
#278=ORIENTED_EDGE('',*,*,#209,.T.);
#279=ORIENTED_EDGE('',*,*,#219,.F.);
#280=ORIENTED_EDGE('',*,*,#214,.T.);
#281=ORIENTED_EDGE('',*,*,#183,.F.);
#282=ORIENTED_EDGE('',*,*,#187,.T.);
#283=ORIENTED_EDGE('',*,*,#213,.F.);
#284=ORIENTED_EDGE('',*,*,#218,.F.);
#285=ORIENTED_EDGE('',*,*,#193,.F.);
#286=ORIENTED_EDGE('',*,*,#189,.F.);
#287=ORIENTED_EDGE('',*,*,#220,.F.);
#288=ORIENTED_EDGE('',*,*,#221,.F.);
#289=ORIENTED_EDGE('',*,*,#222,.F.);
#290=ORIENTED_EDGE('',*,*,#221,.T.);
#291=ORIENTED_EDGE('',*,*,#223,.F.);
#292=ORIENTED_EDGE('',*,*,#224,.F.);
#293=ORIENTED_EDGE('',*,*,#225,.F.);
#294=ORIENTED_EDGE('',*,*,#224,.T.);
#295=ORIENTED_EDGE('',*,*,#226,.F.);
#296=ORIENTED_EDGE('',*,*,#191,.F.);
#297=ORIENTED_EDGE('',*,*,#195,.T.);
#298=ORIENTED_EDGE('',*,*,#217,.T.);
#299=ORIENTED_EDGE('',*,*,#211,.F.);
#300=ORIENTED_EDGE('',*,*,#185,.F.);
#301=ORIENTED_EDGE('',*,*,#181,.F.);
#302=ORIENTED_EDGE('',*,*,#216,.F.);
#303=ORIENTED_EDGE('',*,*,#225,.T.);
#304=ORIENTED_EDGE('',*,*,#215,.T.);
#305=ORIENTED_EDGE('',*,*,#219,.T.);
#306=ORIENTED_EDGE('',*,*,#222,.T.);
#307=ORIENTED_EDGE('',*,*,#203,.T.);
#308=ORIENTED_EDGE('',*,*,#206,.T.);
#309=ORIENTED_EDGE('',*,*,#196,.T.);
#310=ORIENTED_EDGE('',*,*,#200,.T.);
#311=ORIENTED_EDGE('',*,*,#192,.F.);
#312=ORIENTED_EDGE('',*,*,#226,.T.);
#313=ORIENTED_EDGE('',*,*,#223,.T.);
#314=ORIENTED_EDGE('',*,*,#220,.T.);
#315=ORIENTED_EDGE('',*,*,#204,.T.);
#316=ORIENTED_EDGE('',*,*,#201,.T.);
#317=ORIENTED_EDGE('',*,*,#198,.T.);
#318=ORIENTED_EDGE('',*,*,#207,.T.);
#319=CYLINDRICAL_SURFACE('',#361,2.);
#320=CYLINDRICAL_SURFACE('',#366,2.);
#321=CYLINDRICAL_SURFACE('',#370,3.2);
#322=CYLINDRICAL_SURFACE('',#374,3.2);
#323=CYLINDRICAL_SURFACE('',#378,5.053);
#324=ADVANCED_FACE('',(#31),#319,.F.);
#325=ADVANCED_FACE('',(#32,#15),#19,.T.);
#326=ADVANCED_FACE('',(#33),#320,.F.);
#327=ADVANCED_FACE('',(#34),#20,.T.);
#328=ADVANCED_FACE('',(#35),#321,.F.);
#329=ADVANCED_FACE('',(#36),#21,.F.);
#330=ADVANCED_FACE('',(#37),#322,.F.);
#331=ADVANCED_FACE('',(#38),#22,.F.);
#332=ADVANCED_FACE('',(#39),#323,.F.);
#333=ADVANCED_FACE('',(#40),#23,.T.);
#334=ADVANCED_FACE('',(#41),#24,.T.);
#335=ADVANCED_FACE('',(#42,#16),#25,.T.);
#336=ADVANCED_FACE('',(#43),#26,.T.);
#337=ADVANCED_FACE('',(#44),#27,.T.);
#338=ADVANCED_FACE('',(#45),#28,.T.);
#339=ADVANCED_FACE('',(#46,#17),#29,.F.);
#340=ADVANCED_FACE('',(#47,#18),#30,.T.);
#341=CLOSED_SHELL('',(#324,#325,#326,#327,#328,#329,#330,#331,#332,#333,
#334,#335,#336,#337,#338,#339,#340));
#342=DERIVED_UNIT_ELEMENT(#344,1.);
#343=DERIVED_UNIT_ELEMENT(#582,3.);
#344=(
MASS_UNIT()
NAMED_UNIT(*)
SI_UNIT($,.GRAM.)
);
#345=DERIVED_UNIT((#342,#343));
#346=MEASURE_REPRESENTATION_ITEM('density measure',
POSITIVE_RATIO_MEASURE(2.7),#345);
#347=PROPERTY_DEFINITION_REPRESENTATION(#352,#349);
#348=PROPERTY_DEFINITION_REPRESENTATION(#353,#350);
#349=REPRESENTATION('material name',(#351),#579);
#350=REPRESENTATION('density',(#346),#579);
#351=DESCRIPTIVE_REPRESENTATION_ITEM('Aluminium 6061','Aluminium 6061');
#352=PROPERTY_DEFINITION('material property','material name',#589);
#353=PROPERTY_DEFINITION('material property','density of part',#589);
#354=DATE_TIME_ROLE('creation_date');
#355=APPLIED_DATE_AND_TIME_ASSIGNMENT(#356,#354,(#589));
#356=DATE_AND_TIME(#357,#358);
#357=CALENDAR_DATE(2019,14,10);
#358=LOCAL_TIME(22,0,0.,#359);
#359=COORDINATED_UNIVERSAL_TIME_OFFSET(0,0,.BEHIND.);
#360=AXIS2_PLACEMENT_3D('placement',#482,#389,#390);
#361=AXIS2_PLACEMENT_3D('',#483,#391,#392);
#362=AXIS2_PLACEMENT_3D('',#486,#393,#394);
#363=AXIS2_PLACEMENT_3D('',#490,#396,#397);
#364=AXIS2_PLACEMENT_3D('',#492,#399,#400);
#365=AXIS2_PLACEMENT_3D('',#499,#404,#405);
#366=AXIS2_PLACEMENT_3D('',#500,#406,#407);
#367=AXIS2_PLACEMENT_3D('',#503,#408,#409);
#368=AXIS2_PLACEMENT_3D('',#507,#411,#412);
#369=AXIS2_PLACEMENT_3D('',#509,#414,#415);
#370=AXIS2_PLACEMENT_3D('',#515,#419,#420);
#371=AXIS2_PLACEMENT_3D('',#518,#421,#422);
#372=AXIS2_PLACEMENT_3D('',#522,#424,#425);
#373=AXIS2_PLACEMENT_3D('',#524,#427,#428);
#374=AXIS2_PLACEMENT_3D('',#530,#432,#433);
#375=AXIS2_PLACEMENT_3D('',#532,#434,#435);
#376=AXIS2_PLACEMENT_3D('',#534,#436,#437);
#377=AXIS2_PLACEMENT_3D('',#536,#439,#440);
#378=AXIS2_PLACEMENT_3D('',#539,#443,#444);
#379=AXIS2_PLACEMENT_3D('',#542,#445,#446);
#380=AXIS2_PLACEMENT_3D('',#543,#447,#448);
#381=AXIS2_PLACEMENT_3D('',#545,#450,#451);
#382=AXIS2_PLACEMENT_3D('',#551,#455,#456);
#383=AXIS2_PLACEMENT_3D('',#557,#460,#461);
#384=AXIS2_PLACEMENT_3D('',#560,#464,#465);
#385=AXIS2_PLACEMENT_3D('',#566,#469,#470);
#386=AXIS2_PLACEMENT_3D('',#572,#474,#475);
#387=AXIS2_PLACEMENT_3D('',#575,#478,#479);
#388=AXIS2_PLACEMENT_3D('',#576,#480,#481);
#389=DIRECTION('axis',(0.,0.,1.));
#390=DIRECTION('refdir',(1.,0.,0.));
#391=DIRECTION('center_axis',(0.,-1.,0.));
#392=DIRECTION('ref_axis',(-0.707106781186546,0.,0.707106781186549));
#393=DIRECTION('center_axis',(0.,1.,0.));
#394=DIRECTION('ref_axis',(-0.707106781186546,0.,0.707106781186549));
#395=DIRECTION('',(0.,-1.,0.));
#396=DIRECTION('center_axis',(-1.80411241501588E-16,-1.,0.));
#397=DIRECTION('ref_axis',(-0.707106781186546,0.,0.707106781186549));
#398=DIRECTION('',(0.,1.,0.));
#399=DIRECTION('center_axis',(0.,0.,-1.));
#400=DIRECTION('ref_axis',(0.,1.,0.));
#401=DIRECTION('',(1.,0.,0.));
#402=DIRECTION('',(0.,1.,0.));
#403=DIRECTION('',(1.,0.,0.));
#404=DIRECTION('center_axis',(0.,0.,1.));
#405=DIRECTION('ref_axis',(1.,0.,0.));
#406=DIRECTION('center_axis',(-4.44089209850063E-16,1.,0.));
#407=DIRECTION('ref_axis',(0.707106781186548,7.85046229341887E-16,-0.707106781186548));
#408=DIRECTION('center_axis',(-1.80411241501588E-16,-1.,0.));
#409=DIRECTION('ref_axis',(0.707106781186548,7.85046229341887E-16,-0.707106781186548));
#410=DIRECTION('',(-4.44089209850063E-16,1.,0.));
#411=DIRECTION('center_axis',(0.,1.,0.));
#412=DIRECTION('ref_axis',(0.707106781186548,7.85046229341887E-16,-0.707106781186548));
#413=DIRECTION('',(4.44089209850063E-16,-1.,0.));
#414=DIRECTION('center_axis',(-1.,-4.44089209850063E-16,0.));
#415=DIRECTION('ref_axis',(4.44089209850063E-16,-1.,0.));
#416=DIRECTION('',(0.,0.,1.));
#417=DIRECTION('',(4.44089209850063E-16,-1.,0.));
#418=DIRECTION('',(0.,0.,1.));
#419=DIRECTION('center_axis',(0.,0.,-1.));
#420=DIRECTION('ref_axis',(1.38777878078145E-15,1.,0.));
#421=DIRECTION('center_axis',(0.,0.,1.));
#422=DIRECTION('ref_axis',(1.38777878078145E-15,1.,0.));
#423=DIRECTION('',(0.,0.,-1.));
#424=DIRECTION('center_axis',(0.,0.,-1.));
#425=DIRECTION('ref_axis',(1.38777878078145E-15,1.,0.));
#426=DIRECTION('',(0.,0.,-1.));
#427=DIRECTION('center_axis',(0.,-1.,0.));
#428=DIRECTION('ref_axis',(-1.,0.,0.));
#429=DIRECTION('',(1.,0.,0.));
#430=DIRECTION('',(-1.,0.,0.));
#431=DIRECTION('',(0.,0.,-1.));
#432=DIRECTION('center_axis',(0.,0.,-1.));
#433=DIRECTION('ref_axis',(0.,-1.,0.));
#434=DIRECTION('center_axis',(0.,0.,1.));
#435=DIRECTION('ref_axis',(0.,-1.,0.));
#436=DIRECTION('center_axis',(0.,0.,-1.));
#437=DIRECTION('ref_axis',(0.,-1.,0.));
#438=DIRECTION('',(0.,0.,-1.));
#439=DIRECTION('center_axis',(0.,1.,0.));
#440=DIRECTION('ref_axis',(1.,0.,0.));
#441=DIRECTION('',(-1.,0.,0.));
#442=DIRECTION('',(1.,0.,0.));
#443=DIRECTION('center_axis',(0.,0.,1.));
#444=DIRECTION('ref_axis',(1.,0.,0.));
#445=DIRECTION('center_axis',(0.,0.,-1.));
#446=DIRECTION('ref_axis',(1.,0.,0.));
#447=DIRECTION('center_axis',(0.,0.,-1.));
#448=DIRECTION('ref_axis',(1.,0.,0.));
#449=DIRECTION('',(0.,0.,-1.));
#450=DIRECTION('center_axis',(1.,0.,0.));
#451=DIRECTION('ref_axis',(0.,0.,-1.));
#452=DIRECTION('',(0.,0.,1.));
#453=DIRECTION('',(0.,-1.,-8.88178419700125E-16));
#454=DIRECTION('',(0.,-2.81736037578933E-31,-1.));
#455=DIRECTION('center_axis',(1.,0.,0.));
#456=DIRECTION('ref_axis',(0.,1.,0.));
#457=DIRECTION('',(0.,0.,1.));
#458=DIRECTION('',(0.,-1.,0.));
#459=DIRECTION('',(0.,0.,1.));
#460=DIRECTION('center_axis',(0.,0.,1.));
#461=DIRECTION('ref_axis',(1.,0.,0.));
#462=DIRECTION('',(1.,0.,0.));
#463=DIRECTION('',(1.,0.,0.));
#464=DIRECTION('center_axis',(-1.80411241501588E-16,-1.,0.));
#465=DIRECTION('ref_axis',(1.,-1.80411241501588E-16,0.));
#466=DIRECTION('',(-1.,1.80411241501588E-16,0.));
#467=DIRECTION('',(1.,-1.80411241501588E-16,0.));
#468=DIRECTION('',(0.,0.,1.));
#469=DIRECTION('center_axis',(-1.,0.,0.));
#470=DIRECTION('ref_axis',(0.,-1.,0.));
#471=DIRECTION('',(0.,1.,0.));
#472=DIRECTION('',(0.,-1.,0.));
#473=DIRECTION('',(0.,0.,1.));
#474=DIRECTION('center_axis',(0.,1.,0.));
#475=DIRECTION('ref_axis',(-1.,0.,0.));
#476=DIRECTION('',(1.,0.,0.));
#477=DIRECTION('',(-1.,0.,0.));
#478=DIRECTION('center_axis',(0.,0.,1.));
#479=DIRECTION('ref_axis',(1.,0.,0.));
#480=DIRECTION('center_axis',(0.,0.,1.));
#481=DIRECTION('ref_axis',(1.,0.,0.));
#482=CARTESIAN_POINT('',(0.,0.,0.));
#483=CARTESIAN_POINT('Origin',(42.,-10.,38.));
#484=CARTESIAN_POINT('',(40.,10.,38.));
#485=CARTESIAN_POINT('',(42.,10.,40.));
#486=CARTESIAN_POINT('Origin',(42.,10.,38.));
#487=CARTESIAN_POINT('',(42.,-10.,40.));
#488=CARTESIAN_POINT('',(42.,-10.,40.));
#489=CARTESIAN_POINT('',(40.,-10.,38.));
#490=CARTESIAN_POINT('Origin',(42.,-9.99999999999999,38.));
#491=CARTESIAN_POINT('',(40.,-10.,38.));
#492=CARTESIAN_POINT('Origin',(40.,-10.,40.));
#493=CARTESIAN_POINT('',(100.,10.,40.));
#494=CARTESIAN_POINT('',(40.,10.,40.));
#495=CARTESIAN_POINT('',(100.,-10.,40.));
#496=CARTESIAN_POINT('',(100.,-10.,40.));
#497=CARTESIAN_POINT('',(40.,-10.,40.));
#498=CARTESIAN_POINT('',(79.947,-6.18814027609158E-16,40.));
#499=CARTESIAN_POINT('Origin',(85.,0.,40.));
#500=CARTESIAN_POINT('Origin',(31.,5.00000000000001,9.));
#501=CARTESIAN_POINT('',(31.,-10.,7.));
#502=CARTESIAN_POINT('',(33.,-10.,9.));
#503=CARTESIAN_POINT('Origin',(31.,-9.99999999999996,9.));
#504=CARTESIAN_POINT('',(33.,10.,9.));
#505=CARTESIAN_POINT('',(33.,5.00000000000001,9.));
#506=CARTESIAN_POINT('',(31.,10.,7.));
#507=CARTESIAN_POINT('Origin',(31.,10.,9.));
#508=CARTESIAN_POINT('',(31.,5.00000000000001,7.));
#509=CARTESIAN_POINT('Origin',(33.,10.,7.));
#510=CARTESIAN_POINT('',(33.,-10.,47.));
#511=CARTESIAN_POINT('',(33.,-10.,7.));
#512=CARTESIAN_POINT('',(33.,10.,47.));
#513=CARTESIAN_POINT('',(33.,10.,47.));
#514=CARTESIAN_POINT('',(33.,10.,7.));
#515=CARTESIAN_POINT('Origin',(-30.,6.66133814775094E-15,7.));
#516=CARTESIAN_POINT('',(-30.,3.20000000000001,0.));
#517=CARTESIAN_POINT('',(-30.,-3.19999999999999,0.));
#518=CARTESIAN_POINT('Origin',(-30.,6.66133814775094E-15,0.));
#519=CARTESIAN_POINT('',(-30.,3.20000000000001,7.));
#520=CARTESIAN_POINT('',(-30.,3.20000000000001,7.));
#521=CARTESIAN_POINT('',(-30.,-3.19999999999999,7.));
#522=CARTESIAN_POINT('Origin',(-30.,6.66133814775094E-15,7.));
#523=CARTESIAN_POINT('',(-30.,-3.19999999999999,7.));
#524=CARTESIAN_POINT('Origin',(15.,-3.19999999999999,7.));
#525=CARTESIAN_POINT('',(15.,-3.19999999999999,0.));
#526=CARTESIAN_POINT('',(7.5,-3.19999999999999,0.));
#527=CARTESIAN_POINT('',(15.,-3.19999999999999,7.));
#528=CARTESIAN_POINT('',(7.5,-3.19999999999999,7.));
#529=CARTESIAN_POINT('',(15.,-3.19999999999999,7.));
#530=CARTESIAN_POINT('Origin',(15.,6.66133814775094E-15,7.));
#531=CARTESIAN_POINT('',(15.,3.20000000000001,0.));
#532=CARTESIAN_POINT('Origin',(15.,6.66133814775094E-15,0.));
#533=CARTESIAN_POINT('',(15.,3.20000000000001,7.));
#534=CARTESIAN_POINT('Origin',(15.,6.66133814775094E-15,7.));
#535=CARTESIAN_POINT('',(15.,3.20000000000001,7.));
#536=CARTESIAN_POINT('Origin',(-30.,3.20000000000001,7.));
#537=CARTESIAN_POINT('',(-15.,3.20000000000001,0.));
#538=CARTESIAN_POINT('',(-15.,3.20000000000001,7.));
#539=CARTESIAN_POINT('Origin',(85.,0.,-102.026843219603));
#540=CARTESIAN_POINT('',(90.053,0.,47.));
#541=CARTESIAN_POINT('',(79.947,-6.18814027609158E-16,47.));
#542=CARTESIAN_POINT('Origin',(85.,0.,47.));
#543=CARTESIAN_POINT('Origin',(85.,0.,47.));
#544=CARTESIAN_POINT('',(79.947,-6.18814027609158E-16,-102.026843219603));
#545=CARTESIAN_POINT('Origin',(100.,6.66133814775094E-15,43.5));
#546=CARTESIAN_POINT('',(100.,10.,47.));
#547=CARTESIAN_POINT('',(100.,10.,40.));
#548=CARTESIAN_POINT('',(100.,-10.,47.));
#549=CARTESIAN_POINT('',(100.,10.,47.));
#550=CARTESIAN_POINT('',(100.,-10.,47.));
#551=CARTESIAN_POINT('Origin',(40.,-10.,0.));
#552=CARTESIAN_POINT('',(40.,-10.,0.));
#553=CARTESIAN_POINT('',(40.,-10.,0.));
#554=CARTESIAN_POINT('',(40.,10.,0.));
#555=CARTESIAN_POINT('',(40.,10.,0.));
#556=CARTESIAN_POINT('',(40.,10.,0.));
#557=CARTESIAN_POINT('Origin',(36.5,6.66133814775094E-15,47.));
#558=CARTESIAN_POINT('',(40.,10.,47.));
#559=CARTESIAN_POINT('',(33.,-10.,47.));
#560=CARTESIAN_POINT('Origin',(-40.,-9.99999999999999,0.));
#561=CARTESIAN_POINT('',(-40.,-9.99999999999999,0.));
#562=CARTESIAN_POINT('',(40.,-10.,0.));
#563=CARTESIAN_POINT('',(-40.,-9.99999999999999,7.));
#564=CARTESIAN_POINT('',(40.,-10.,7.));
#565=CARTESIAN_POINT('',(-40.,-9.99999999999999,0.));
#566=CARTESIAN_POINT('Origin',(-40.,10.,0.));
#567=CARTESIAN_POINT('',(-40.,10.,0.));
#568=CARTESIAN_POINT('',(-40.,-9.99999999999999,0.));
#569=CARTESIAN_POINT('',(-40.,10.,7.));
#570=CARTESIAN_POINT('',(-40.,-9.99999999999999,7.));
#571=CARTESIAN_POINT('',(-40.,10.,0.));
#572=CARTESIAN_POINT('Origin',(40.,10.,0.));
#573=CARTESIAN_POINT('',(-40.,10.,0.));
#574=CARTESIAN_POINT('',(-40.,10.,7.));
#575=CARTESIAN_POINT('Origin',(2.66453525910038E-15,3.49720252756924E-15,
0.));
#576=CARTESIAN_POINT('Origin',(0.,4.44089209850063E-15,7.));
#577=UNCERTAINTY_MEASURE_WITH_UNIT(LENGTH_MEASURE(0.01),#581,
'DISTANCE_ACCURACY_VALUE',
'Maximum model space distance between geometric entities at asserted c
onnectivities');
#578=UNCERTAINTY_MEASURE_WITH_UNIT(LENGTH_MEASURE(0.01),#581,
'DISTANCE_ACCURACY_VALUE',
'Maximum model space distance between geometric entities at asserted c
onnectivities');
#579=(
GEOMETRIC_REPRESENTATION_CONTEXT(3)
GLOBAL_UNCERTAINTY_ASSIGNED_CONTEXT((#577))
GLOBAL_UNIT_ASSIGNED_CONTEXT((#581,#583,#584))
REPRESENTATION_CONTEXT('','3D')
);
#580=(
GEOMETRIC_REPRESENTATION_CONTEXT(3)
GLOBAL_UNCERTAINTY_ASSIGNED_CONTEXT((#578))
GLOBAL_UNIT_ASSIGNED_CONTEXT((#581,#583,#584))
REPRESENTATION_CONTEXT('','3D')
);
#581=(
LENGTH_UNIT()
NAMED_UNIT(*)
SI_UNIT(.MILLI.,.METRE.)
);
#582=(
LENGTH_UNIT()
NAMED_UNIT(*)
SI_UNIT(.CENTI.,.METRE.)
);
#583=(
NAMED_UNIT(*)
PLANE_ANGLE_UNIT()
SI_UNIT($,.RADIAN.)
);
#584=(
NAMED_UNIT(*)
SI_UNIT($,.STERADIAN.)
SOLID_ANGLE_UNIT()
);
#585=SHAPE_DEFINITION_REPRESENTATION(#586,#587);
#586=PRODUCT_DEFINITION_SHAPE('',$,#589);
#587=SHAPE_REPRESENTATION('',(#360),#579);
#588=PRODUCT_DEFINITION_CONTEXT('part definition',#593,'design');
#589=PRODUCT_DEFINITION('GSE-1201-022-001-A',
'GSE-1201-022-001-A (Support capteur M6)',#590,#588);
#590=PRODUCT_DEFINITION_FORMATION('A',$,#595);
#591=PRODUCT_RELATED_PRODUCT_CATEGORY(
'GSE-1201-022-001-A (Support capteur M6)',
'GSE-1201-022-001-A (Support capteur M6)',(#595));
#592=APPLICATION_PROTOCOL_DEFINITION('international standard',
'automotive_design',2009,#593);
#593=APPLICATION_CONTEXT(
'Core Data for Automotive Mechanical Design Process');
#594=PRODUCT_CONTEXT('part definition',#593,'mechanical');
#595=PRODUCT('GSE-1201-022-001-A',
'GSE-1201-022-001-A (Support capteur M6)',$,(#594));
#596=PRESENTATION_STYLE_ASSIGNMENT((#597));
#597=SURFACE_STYLE_USAGE(.BOTH.,#600);
#598=SURFACE_STYLE_RENDERING_WITH_PROPERTIES($,#604,(#599));
#599=SURFACE_STYLE_TRANSPARENT(0.);
#600=SURFACE_SIDE_STYLE('',(#601,#598));
#601=SURFACE_STYLE_FILL_AREA(#602);
#602=FILL_AREA_STYLE('',(#603));
#603=FILL_AREA_STYLE_COLOUR('',#604);
#604=COLOUR_RGB('',0.996078431372549,0.996078431372549,1.);
ENDSEC;
END-ISO-10303-21;
