ISO-10303-21;
HEADER;
/* Generated by software containing ST-Developer
 * from STEP Tools, Inc. (www.steptools.com) 
 */

FILE_DESCRIPTION(
/* description */ (''),
/* implementation_level */ '2;1');

FILE_NAME(
/* name */ 
'D:/SmartEmbed/EDDO/Impression 3D/support capteur/Support Capteur IR v
16.step',
/* time_stamp */ '2019-10-25T10:55:45+02:00',
/* author */ (''),
/* organization */ (''),
/* preprocessor_version */ 'ST-DEVELOPER v18',
/* originating_system */ 'Autodesk Translation Framework v8.6.0.1094',
/* authorisation */ '');

FILE_SCHEMA (('AUTOMOTIVE_DESIGN { 1 0 10303 214 3 1 1 }'));
ENDSEC;

DATA;
#10=MECHANICAL_DESIGN_GEOMETRIC_PRESENTATION_REPRESENTATION('',(#13),#381);
#11=SHAPE_REPRESENTATION_RELATIONSHIP('SRR','None',#387,#12);
#12=ADVANCED_BREP_SHAPE_REPRESENTATION('',(#14),#380);
#13=STYLED_ITEM('',(#396),#14);
#14=MANIFOLD_SOLID_BREP('Body1',#215);
#15=CONICAL_SURFACE('',#238,17.5,0.785398163397449);
#16=CYLINDRICAL_SURFACE('',#225,13.15);
#17=CYLINDRICAL_SURFACE('',#230,12.55);
#18=CYLINDRICAL_SURFACE('',#231,12.55);
#19=CYLINDRICAL_SURFACE('',#233,14.925);
#20=CYLINDRICAL_SURFACE('',#241,18.);
#21=CYLINDRICAL_SURFACE('',#244,9.);
#22=FACE_BOUND('',#60,.T.);
#23=FACE_BOUND('',#62,.T.);
#24=FACE_BOUND('',#65,.T.);
#25=FACE_BOUND('',#70,.T.);
#26=FACE_BOUND('',#74,.T.);
#27=FACE_BOUND('',#77,.T.);
#28=CIRCLE('',#219,14.925);
#29=CIRCLE('',#220,12.55);
#30=CIRCLE('',#222,13.15);
#31=CIRCLE('',#223,13.15);
#32=CIRCLE('',#224,12.55);
#33=CIRCLE('',#226,13.15);
#34=CIRCLE('',#227,13.15);
#35=CIRCLE('',#229,12.55);
#36=CIRCLE('',#232,12.55);
#37=CIRCLE('',#234,14.925);
#38=CIRCLE('',#236,18.);
#39=CIRCLE('',#237,18.);
#40=CIRCLE('',#239,18.);
#41=CIRCLE('',#240,17.);
#42=CIRCLE('',#243,9.);
#43=CIRCLE('',#245,9.);
#44=FACE_OUTER_BOUND('',#58,.T.);
#45=FACE_OUTER_BOUND('',#59,.T.);
#46=FACE_OUTER_BOUND('',#61,.T.);
#47=FACE_OUTER_BOUND('',#63,.T.);
#48=FACE_OUTER_BOUND('',#64,.T.);
#49=FACE_OUTER_BOUND('',#66,.T.);
#50=FACE_OUTER_BOUND('',#67,.T.);
#51=FACE_OUTER_BOUND('',#68,.T.);
#52=FACE_OUTER_BOUND('',#69,.T.);
#53=FACE_OUTER_BOUND('',#71,.T.);
#54=FACE_OUTER_BOUND('',#72,.T.);
#55=FACE_OUTER_BOUND('',#73,.T.);
#56=FACE_OUTER_BOUND('',#75,.T.);
#57=FACE_OUTER_BOUND('',#76,.T.);
#58=EDGE_LOOP('',(#142,#143,#144,#145));
#59=EDGE_LOOP('',(#146,#147));
#60=EDGE_LOOP('',(#148));
#61=EDGE_LOOP('',(#149,#150));
#62=EDGE_LOOP('',(#151));
#63=EDGE_LOOP('',(#152,#153,#154,#155,#156,#157));
#64=EDGE_LOOP('',(#158,#159));
#65=EDGE_LOOP('',(#160));
#66=EDGE_LOOP('',(#161,#162,#163,#164));
#67=EDGE_LOOP('',(#165,#166,#167,#168));
#68=EDGE_LOOP('',(#169,#170,#171,#172));
#69=EDGE_LOOP('',(#173,#174));
#70=EDGE_LOOP('',(#175,#176));
#71=EDGE_LOOP('',(#177,#178,#179,#180));
#72=EDGE_LOOP('',(#181,#182,#183,#184,#185));
#73=EDGE_LOOP('',(#186));
#74=EDGE_LOOP('',(#187));
#75=EDGE_LOOP('',(#188,#189,#190,#191));
#76=EDGE_LOOP('',(#192));
#77=EDGE_LOOP('',(#193));
#78=LINE('',#323,#88);
#79=LINE('',#325,#89);
#80=LINE('',#327,#90);
#81=LINE('',#328,#91);
#82=LINE('',#342,#92);
#83=LINE('',#350,#93);
#84=LINE('',#353,#94);
#85=LINE('',#366,#95);
#86=LINE('',#369,#96);
#87=LINE('',#376,#97);
#88=VECTOR('',#251,10.);
#89=VECTOR('',#252,10.);
#90=VECTOR('',#253,10.);
#91=VECTOR('',#254,10.);
#92=VECTOR('',#271,13.15);
#93=VECTOR('',#282,12.55);
#94=VECTOR('',#285,12.55);
#95=VECTOR('',#302,17.5);
#96=VECTOR('',#307,18.);
#97=VECTOR('',#316,9.);
#98=VERTEX_POINT('',#321);
#99=VERTEX_POINT('',#322);
#100=VERTEX_POINT('',#324);
#101=VERTEX_POINT('',#326);
#102=VERTEX_POINT('',#331);
#103=VERTEX_POINT('',#334);
#104=VERTEX_POINT('',#335);
#105=VERTEX_POINT('',#338);
#106=VERTEX_POINT('',#341);
#107=VERTEX_POINT('',#343);
#108=VERTEX_POINT('',#347);
#109=VERTEX_POINT('',#352);
#110=VERTEX_POINT('',#358);
#111=VERTEX_POINT('',#359);
#112=VERTEX_POINT('',#363);
#113=VERTEX_POINT('',#365);
#114=VERTEX_POINT('',#371);
#115=VERTEX_POINT('',#374);
#116=EDGE_CURVE('',#98,#99,#78,.T.);
#117=EDGE_CURVE('',#98,#100,#79,.T.);
#118=EDGE_CURVE('',#101,#100,#80,.T.);
#119=EDGE_CURVE('',#99,#101,#81,.T.);
#120=EDGE_CURVE('',#101,#99,#28,.F.);
#121=EDGE_CURVE('',#102,#102,#29,.T.);
#122=EDGE_CURVE('',#103,#104,#30,.T.);
#123=EDGE_CURVE('',#104,#103,#31,.T.);
#124=EDGE_CURVE('',#105,#105,#32,.T.);
#125=EDGE_CURVE('',#104,#106,#82,.T.);
#126=EDGE_CURVE('',#106,#107,#33,.T.);
#127=EDGE_CURVE('',#107,#106,#34,.T.);
#128=EDGE_CURVE('',#108,#108,#35,.T.);
#129=EDGE_CURVE('',#102,#108,#83,.T.);
#130=EDGE_CURVE('',#105,#109,#84,.T.);
#131=EDGE_CURVE('',#109,#109,#36,.T.);
#132=EDGE_CURVE('',#98,#100,#37,.T.);
#133=EDGE_CURVE('',#110,#111,#38,.T.);
#134=EDGE_CURVE('',#111,#110,#39,.T.);
#135=EDGE_CURVE('',#112,#112,#40,.T.);
#136=EDGE_CURVE('',#112,#113,#85,.T.);
#137=EDGE_CURVE('',#113,#113,#41,.T.);
#138=EDGE_CURVE('',#111,#112,#86,.T.);
#139=EDGE_CURVE('',#114,#114,#42,.T.);
#140=EDGE_CURVE('',#115,#115,#43,.T.);
#141=EDGE_CURVE('',#115,#114,#87,.T.);
#142=ORIENTED_EDGE('',*,*,#116,.F.);
#143=ORIENTED_EDGE('',*,*,#117,.T.);
#144=ORIENTED_EDGE('',*,*,#118,.F.);
#145=ORIENTED_EDGE('',*,*,#119,.F.);
#146=ORIENTED_EDGE('',*,*,#119,.T.);
#147=ORIENTED_EDGE('',*,*,#120,.T.);
#148=ORIENTED_EDGE('',*,*,#121,.T.);
#149=ORIENTED_EDGE('',*,*,#122,.T.);
#150=ORIENTED_EDGE('',*,*,#123,.T.);
#151=ORIENTED_EDGE('',*,*,#124,.F.);
#152=ORIENTED_EDGE('',*,*,#122,.F.);
#153=ORIENTED_EDGE('',*,*,#123,.F.);
#154=ORIENTED_EDGE('',*,*,#125,.T.);
#155=ORIENTED_EDGE('',*,*,#126,.T.);
#156=ORIENTED_EDGE('',*,*,#127,.T.);
#157=ORIENTED_EDGE('',*,*,#125,.F.);
#158=ORIENTED_EDGE('',*,*,#127,.F.);
#159=ORIENTED_EDGE('',*,*,#126,.F.);
#160=ORIENTED_EDGE('',*,*,#128,.F.);
#161=ORIENTED_EDGE('',*,*,#121,.F.);
#162=ORIENTED_EDGE('',*,*,#129,.T.);
#163=ORIENTED_EDGE('',*,*,#128,.T.);
#164=ORIENTED_EDGE('',*,*,#129,.F.);
#165=ORIENTED_EDGE('',*,*,#124,.T.);
#166=ORIENTED_EDGE('',*,*,#130,.T.);
#167=ORIENTED_EDGE('',*,*,#131,.F.);
#168=ORIENTED_EDGE('',*,*,#130,.F.);
#169=ORIENTED_EDGE('',*,*,#116,.T.);
#170=ORIENTED_EDGE('',*,*,#120,.F.);
#171=ORIENTED_EDGE('',*,*,#118,.T.);
#172=ORIENTED_EDGE('',*,*,#132,.F.);
#173=ORIENTED_EDGE('',*,*,#133,.T.);
#174=ORIENTED_EDGE('',*,*,#134,.T.);
#175=ORIENTED_EDGE('',*,*,#132,.T.);
#176=ORIENTED_EDGE('',*,*,#117,.F.);
#177=ORIENTED_EDGE('',*,*,#135,.T.);
#178=ORIENTED_EDGE('',*,*,#136,.T.);
#179=ORIENTED_EDGE('',*,*,#137,.T.);
#180=ORIENTED_EDGE('',*,*,#136,.F.);
#181=ORIENTED_EDGE('',*,*,#133,.F.);
#182=ORIENTED_EDGE('',*,*,#134,.F.);
#183=ORIENTED_EDGE('',*,*,#138,.T.);
#184=ORIENTED_EDGE('',*,*,#135,.F.);
#185=ORIENTED_EDGE('',*,*,#138,.F.);
#186=ORIENTED_EDGE('',*,*,#137,.F.);
#187=ORIENTED_EDGE('',*,*,#139,.F.);
#188=ORIENTED_EDGE('',*,*,#140,.F.);
#189=ORIENTED_EDGE('',*,*,#141,.T.);
#190=ORIENTED_EDGE('',*,*,#139,.T.);
#191=ORIENTED_EDGE('',*,*,#141,.F.);
#192=ORIENTED_EDGE('',*,*,#131,.T.);
#193=ORIENTED_EDGE('',*,*,#140,.T.);
#194=PLANE('',#217);
#195=PLANE('',#218);
#196=PLANE('',#221);
#197=PLANE('',#228);
#198=PLANE('',#235);
#199=PLANE('',#242);
#200=PLANE('',#246);
#201=ADVANCED_FACE('',(#44),#194,.F.);
#202=ADVANCED_FACE('',(#45,#22),#195,.T.);
#203=ADVANCED_FACE('',(#46,#23),#196,.F.);
#204=ADVANCED_FACE('',(#47),#16,.F.);
#205=ADVANCED_FACE('',(#48,#24),#197,.F.);
#206=ADVANCED_FACE('',(#49),#17,.F.);
#207=ADVANCED_FACE('',(#50),#18,.F.);
#208=ADVANCED_FACE('',(#51),#19,.T.);
#209=ADVANCED_FACE('',(#52,#25),#198,.T.);
#210=ADVANCED_FACE('',(#53),#15,.T.);
#211=ADVANCED_FACE('',(#54),#20,.T.);
#212=ADVANCED_FACE('',(#55,#26),#199,.F.);
#213=ADVANCED_FACE('',(#56),#21,.F.);
#214=ADVANCED_FACE('',(#57,#27),#200,.T.);
#215=CLOSED_SHELL('',(#201,#202,#203,#204,#205,#206,#207,#208,#209,#210,
#211,#212,#213,#214));
#216=AXIS2_PLACEMENT_3D('placement',#319,#247,#248);
#217=AXIS2_PLACEMENT_3D('',#320,#249,#250);
#218=AXIS2_PLACEMENT_3D('',#329,#255,#256);
#219=AXIS2_PLACEMENT_3D('',#330,#257,#258);
#220=AXIS2_PLACEMENT_3D('',#332,#259,#260);
#221=AXIS2_PLACEMENT_3D('',#333,#261,#262);
#222=AXIS2_PLACEMENT_3D('',#336,#263,#264);
#223=AXIS2_PLACEMENT_3D('',#337,#265,#266);
#224=AXIS2_PLACEMENT_3D('',#339,#267,#268);
#225=AXIS2_PLACEMENT_3D('',#340,#269,#270);
#226=AXIS2_PLACEMENT_3D('',#344,#272,#273);
#227=AXIS2_PLACEMENT_3D('',#345,#274,#275);
#228=AXIS2_PLACEMENT_3D('',#346,#276,#277);
#229=AXIS2_PLACEMENT_3D('',#348,#278,#279);
#230=AXIS2_PLACEMENT_3D('',#349,#280,#281);
#231=AXIS2_PLACEMENT_3D('',#351,#283,#284);
#232=AXIS2_PLACEMENT_3D('',#354,#286,#287);
#233=AXIS2_PLACEMENT_3D('',#355,#288,#289);
#234=AXIS2_PLACEMENT_3D('',#356,#290,#291);
#235=AXIS2_PLACEMENT_3D('',#357,#292,#293);
#236=AXIS2_PLACEMENT_3D('',#360,#294,#295);
#237=AXIS2_PLACEMENT_3D('',#361,#296,#297);
#238=AXIS2_PLACEMENT_3D('',#362,#298,#299);
#239=AXIS2_PLACEMENT_3D('',#364,#300,#301);
#240=AXIS2_PLACEMENT_3D('',#367,#303,#304);
#241=AXIS2_PLACEMENT_3D('',#368,#305,#306);
#242=AXIS2_PLACEMENT_3D('',#370,#308,#309);
#243=AXIS2_PLACEMENT_3D('',#372,#310,#311);
#244=AXIS2_PLACEMENT_3D('',#373,#312,#313);
#245=AXIS2_PLACEMENT_3D('',#375,#314,#315);
#246=AXIS2_PLACEMENT_3D('',#377,#317,#318);
#247=DIRECTION('axis',(0.,0.,1.));
#248=DIRECTION('refdir',(1.,0.,0.));
#249=DIRECTION('center_axis',(0.,1.,0.));
#250=DIRECTION('ref_axis',(1.,0.,0.));
#251=DIRECTION('',(0.,0.,1.));
#252=DIRECTION('',(1.,0.,0.));
#253=DIRECTION('',(0.,0.,-1.));
#254=DIRECTION('',(1.,0.,0.));
#255=DIRECTION('center_axis',(0.,0.,1.));
#256=DIRECTION('ref_axis',(-1.,0.,0.));
#257=DIRECTION('center_axis',(0.,0.,-1.));
#258=DIRECTION('ref_axis',(-1.,0.,0.));
#259=DIRECTION('center_axis',(0.,0.,-1.));
#260=DIRECTION('ref_axis',(-1.,0.,0.));
#261=DIRECTION('center_axis',(0.,0.,-1.));
#262=DIRECTION('ref_axis',(-1.,0.,0.));
#263=DIRECTION('center_axis',(0.,0.,1.));
#264=DIRECTION('ref_axis',(1.,0.,0.));
#265=DIRECTION('center_axis',(0.,0.,1.));
#266=DIRECTION('ref_axis',(1.,0.,0.));
#267=DIRECTION('center_axis',(0.,0.,1.));
#268=DIRECTION('ref_axis',(-1.,0.,0.));
#269=DIRECTION('center_axis',(0.,0.,1.));
#270=DIRECTION('ref_axis',(1.,0.,0.));
#271=DIRECTION('',(0.,0.,1.));
#272=DIRECTION('center_axis',(0.,0.,1.));
#273=DIRECTION('ref_axis',(1.,0.,0.));
#274=DIRECTION('center_axis',(0.,0.,1.));
#275=DIRECTION('ref_axis',(1.,0.,0.));
#276=DIRECTION('center_axis',(0.,0.,1.));
#277=DIRECTION('ref_axis',(1.,0.,0.));
#278=DIRECTION('center_axis',(0.,0.,-1.));
#279=DIRECTION('ref_axis',(-1.,0.,0.));
#280=DIRECTION('center_axis',(0.,0.,1.));
#281=DIRECTION('ref_axis',(-1.,0.,0.));
#282=DIRECTION('',(0.,0.,-1.));
#283=DIRECTION('center_axis',(0.,0.,1.));
#284=DIRECTION('ref_axis',(-1.,0.,0.));
#285=DIRECTION('',(0.,0.,-1.));
#286=DIRECTION('center_axis',(0.,0.,1.));
#287=DIRECTION('ref_axis',(-1.,0.,0.));
#288=DIRECTION('center_axis',(0.,0.,1.));
#289=DIRECTION('ref_axis',(-6.12323399573677E-17,1.,0.));
#290=DIRECTION('center_axis',(0.,0.,-1.));
#291=DIRECTION('ref_axis',(-1.,0.,0.));
#292=DIRECTION('center_axis',(0.,0.,1.));
#293=DIRECTION('ref_axis',(1.,0.,0.));
#294=DIRECTION('center_axis',(0.,0.,1.));
#295=DIRECTION('ref_axis',(1.,0.,0.));
#296=DIRECTION('center_axis',(0.,0.,1.));
#297=DIRECTION('ref_axis',(1.,0.,0.));
#298=DIRECTION('center_axis',(0.,0.,1.));
#299=DIRECTION('ref_axis',(1.,0.,0.));
#300=DIRECTION('center_axis',(0.,0.,-1.));
#301=DIRECTION('ref_axis',(1.,0.,0.));
#302=DIRECTION('',(0.707106781186548,8.65956056235494E-17,-0.707106781186547));
#303=DIRECTION('center_axis',(0.,0.,1.));
#304=DIRECTION('ref_axis',(1.,0.,0.));
#305=DIRECTION('center_axis',(0.,0.,1.));
#306=DIRECTION('ref_axis',(1.,0.,0.));
#307=DIRECTION('',(0.,0.,-1.));
#308=DIRECTION('center_axis',(0.,0.,1.));
#309=DIRECTION('ref_axis',(1.,0.,0.));
#310=DIRECTION('center_axis',(0.,0.,-1.));
#311=DIRECTION('ref_axis',(1.,0.,0.));
#312=DIRECTION('center_axis',(0.,0.,1.));
#313=DIRECTION('ref_axis',(1.,0.,0.));
#314=DIRECTION('center_axis',(0.,0.,-1.));
#315=DIRECTION('ref_axis',(1.,0.,0.));
#316=DIRECTION('',(0.,0.,-1.));
#317=DIRECTION('center_axis',(0.,0.,1.));
#318=DIRECTION('ref_axis',(1.,0.,0.));
#319=CARTESIAN_POINT('',(0.,0.,0.));
#320=CARTESIAN_POINT('Origin',(-0.331009639636775,-14.,16.2500002142042));
#321=CARTESIAN_POINT('',(-5.17258397708535,-14.,1.49999996647239));
#322=CARTESIAN_POINT('',(-5.17258397708535,-14.,21.5));
#323=CARTESIAN_POINT('',(-5.17258397708535,-14.,1.5));
#324=CARTESIAN_POINT('',(5.17258397708535,-14.,1.49999996647239));
#325=CARTESIAN_POINT('',(-27.6620196816049,-14.,1.49999996647239));
#326=CARTESIAN_POINT('',(5.17258397708535,-14.,21.5));
#327=CARTESIAN_POINT('',(5.17258397708535,-14.,1.5));
#328=CARTESIAN_POINT('',(-0.165504819818387,-14.,21.5));
#329=CARTESIAN_POINT('Origin',(0.,0.,21.5));
#330=CARTESIAN_POINT('Origin',(0.,0.,21.5));
#331=CARTESIAN_POINT('',(12.55,1.53693173292993E-15,21.5));
#332=CARTESIAN_POINT('Origin',(0.,0.,21.5));
#333=CARTESIAN_POINT('Origin',(13.15,0.,16.2));
#334=CARTESIAN_POINT('',(13.15,0.,16.2));
#335=CARTESIAN_POINT('',(-13.15,-1.61041054087877E-15,16.2));
#336=CARTESIAN_POINT('Origin',(0.,0.,16.2));
#337=CARTESIAN_POINT('Origin',(0.,0.,16.2));
#338=CARTESIAN_POINT('',(12.55,0.,16.2));
#339=CARTESIAN_POINT('Origin',(0.,0.,16.2));
#340=CARTESIAN_POINT('Origin',(0.,0.,16.8));
#341=CARTESIAN_POINT('',(-13.15,-1.61041054087877E-15,17.4));
#342=CARTESIAN_POINT('',(-13.15,-1.61041054087877E-15,16.8));
#343=CARTESIAN_POINT('',(13.15,0.,17.4));
#344=CARTESIAN_POINT('Origin',(0.,0.,17.4));
#345=CARTESIAN_POINT('Origin',(0.,0.,17.4));
#346=CARTESIAN_POINT('Origin',(12.55,0.,17.4));
#347=CARTESIAN_POINT('',(12.55,0.,17.4));
#348=CARTESIAN_POINT('Origin',(0.,0.,17.4));
#349=CARTESIAN_POINT('Origin',(0.,0.,1.5));
#350=CARTESIAN_POINT('',(12.55,1.53693173292993E-15,1.5));
#351=CARTESIAN_POINT('Origin',(0.,0.,1.5));
#352=CARTESIAN_POINT('',(12.55,1.53693173292993E-15,1.5));
#353=CARTESIAN_POINT('',(12.55,1.53693173292993E-15,1.5));
#354=CARTESIAN_POINT('Origin',(0.,0.,1.5));
#355=CARTESIAN_POINT('Origin',(0.,0.,1.5));
#356=CARTESIAN_POINT('Origin',(0.,0.,1.5));
#357=CARTESIAN_POINT('Origin',(0.,0.,1.5));
#358=CARTESIAN_POINT('',(-11.3137084989848,-14.,1.49999996647239));
#359=CARTESIAN_POINT('',(-18.,-2.20436423846524E-15,1.5));
#360=CARTESIAN_POINT('Origin',(0.,0.,1.5));
#361=CARTESIAN_POINT('Origin',(0.,0.,1.5));
#362=CARTESIAN_POINT('Origin',(0.,0.,0.5));
#363=CARTESIAN_POINT('',(-18.,2.20436423846524E-15,1.));
#364=CARTESIAN_POINT('Origin',(0.,0.,1.));
#365=CARTESIAN_POINT('',(-17.,-2.0818995585505E-15,0.));
#366=CARTESIAN_POINT('',(-17.5,-2.14313189850787E-15,0.5));
#367=CARTESIAN_POINT('Origin',(0.,0.,0.));
#368=CARTESIAN_POINT('Origin',(0.,0.,0.));
#369=CARTESIAN_POINT('',(-18.,-2.20436423846524E-15,0.));
#370=CARTESIAN_POINT('Origin',(0.,0.,0.));
#371=CARTESIAN_POINT('',(-9.,-1.10218211923262E-15,0.));
#372=CARTESIAN_POINT('Origin',(0.,0.,0.));
#373=CARTESIAN_POINT('Origin',(0.,0.,0.));
#374=CARTESIAN_POINT('',(-9.,-1.10218211923262E-15,1.5));
#375=CARTESIAN_POINT('Origin',(0.,0.,1.5));
#376=CARTESIAN_POINT('',(-9.,-1.10218211923262E-15,0.));
#377=CARTESIAN_POINT('Origin',(0.,0.,1.5));
#378=UNCERTAINTY_MEASURE_WITH_UNIT(LENGTH_MEASURE(0.01),#382,
'DISTANCE_ACCURACY_VALUE',
'Maximum model space distance between geometric entities at asserted c
onnectivities');
#379=UNCERTAINTY_MEASURE_WITH_UNIT(LENGTH_MEASURE(0.01),#382,
'DISTANCE_ACCURACY_VALUE',
'Maximum model space distance between geometric entities at asserted c
onnectivities');
#380=(
GEOMETRIC_REPRESENTATION_CONTEXT(3)
GLOBAL_UNCERTAINTY_ASSIGNED_CONTEXT((#378))
GLOBAL_UNIT_ASSIGNED_CONTEXT((#382,#383,#384))
REPRESENTATION_CONTEXT('','3D')
);
#381=(
GEOMETRIC_REPRESENTATION_CONTEXT(3)
GLOBAL_UNCERTAINTY_ASSIGNED_CONTEXT((#379))
GLOBAL_UNIT_ASSIGNED_CONTEXT((#382,#383,#384))
REPRESENTATION_CONTEXT('','3D')
);
#382=(
LENGTH_UNIT()
NAMED_UNIT(*)
SI_UNIT(.MILLI.,.METRE.)
);
#383=(
NAMED_UNIT(*)
PLANE_ANGLE_UNIT()
SI_UNIT($,.RADIAN.)
);
#384=(
NAMED_UNIT(*)
SI_UNIT($,.STERADIAN.)
SOLID_ANGLE_UNIT()
);
#385=SHAPE_DEFINITION_REPRESENTATION(#386,#387);
#386=PRODUCT_DEFINITION_SHAPE('',$,#389);
#387=SHAPE_REPRESENTATION('',(#216),#380);
#388=PRODUCT_DEFINITION_CONTEXT('part definition',#393,'design');
#389=PRODUCT_DEFINITION('Support Capteur IR','Support Capteur IR v16',#390,
#388);
#390=PRODUCT_DEFINITION_FORMATION('',$,#395);
#391=PRODUCT_RELATED_PRODUCT_CATEGORY('Support Capteur IR v16',
'Support Capteur IR v16',(#395));
#392=APPLICATION_PROTOCOL_DEFINITION('international standard',
'automotive_design',2009,#393);
#393=APPLICATION_CONTEXT(
'Core Data for Automotive Mechanical Design Process');
#394=PRODUCT_CONTEXT('part definition',#393,'mechanical');
#395=PRODUCT('Support Capteur IR','Support Capteur IR v16',$,(#394));
#396=PRESENTATION_STYLE_ASSIGNMENT((#397));
#397=SURFACE_STYLE_USAGE(.BOTH.,#398);
#398=SURFACE_SIDE_STYLE('',(#399));
#399=SURFACE_STYLE_FILL_AREA(#400);
#400=FILL_AREA_STYLE('Steel - Satin',(#401));
#401=FILL_AREA_STYLE_COLOUR('Steel - Satin',#402);
#402=COLOUR_RGB('Steel - Satin',0.627450980392157,0.627450980392157,0.627450980392157);
ENDSEC;
END-ISO-10303-21;
