ISO-10303-21;
HEADER;
FILE_DESCRIPTION (( 'STEP AP203' ),
    '1' );
FILE_NAME ('Axe pivot.STEP',
    '2019-10-09T06:10:18',
    ( '' ),
    ( '' ),
    'SwSTEP 2.0',
    'SolidWorks 2018',
    '' );
FILE_SCHEMA (( 'CONFIG_CONTROL_DESIGN' ));
ENDSEC;

DATA;
#1 = CARTESIAN_POINT ( 'NONE',  ( 3.061616997868383141E-16, 6.500000000000000888, 2.500000000000000000 ) ) ;
#2 = DIRECTION ( 'NONE',  ( 0.0000000000000000000, 0.0000000000000000000, 1.000000000000000000 ) ) ;
#3 = DATE_TIME_ROLE ( 'classification_date' ) ;
#4 = DIRECTION ( 'NONE',  ( 0.0000000000000000000, 0.0000000000000000000, -1.000000000000000000 ) ) ;
#5 = PERSON_AND_ORGANIZATION_ROLE ( 'classification_officer' ) ;
#6 = PERSON_AND_ORGANIZATION_ROLE ( 'creator' ) ;
#7 = APPROVAL_ROLE ( '' ) ;
#8 = DIRECTION ( 'NONE',  ( -0.0000000000000000000, -1.000000000000000000, -0.0000000000000000000 ) ) ;
#9 = DIRECTION ( 'NONE',  ( 0.0000000000000000000, -1.000000000000000000, 0.0000000000000000000 ) ) ;
#10 = APPROVAL_ROLE ( '' ) ;
#11 = SECURITY_CLASSIFICATION_LEVEL ( 'unclassified' ) ;
#12 = PERSON_AND_ORGANIZATION_ROLE ( 'design_supplier' ) ;
#13 = APPROVAL_STATUS ( 'not_yet_approved' ) ;
#14 = CARTESIAN_POINT ( 'NONE',  ( 3.061616997868383141E-16, 1.500000000000000000, 2.500000000000000000 ) ) ;
#15 = CARTESIAN_POINT ( 'NONE',  ( 6.123233995736766282E-16, 1.500000000000000000, 5.000000000000000000 ) ) ;
#16 = AXIS2_PLACEMENT_3D ( 'NONE', #57, #73, #105 ) ;
#17 = AXIS2_PLACEMENT_3D ( 'NONE', #75, #88, #84 ) ;
#18 = CARTESIAN_POINT ( 'NONE',  ( 0.0000000000000000000, 6.299999999999999822, -2.500000000000000000 ) ) ;
#19 = DIRECTION ( 'NONE',  ( 0.0000000000000000000, 0.0000000000000000000, -1.000000000000000000 ) ) ;
#20 = PRODUCT_DEFINITION_FORMATION_WITH_SPECIFIED_SOURCE ( 'ANY', '', #374, .NOT_KNOWN. ) ;
#21 = DIRECTION ( 'NONE',  ( 0.0000000000000000000, 0.0000000000000000000, 1.000000000000000000 ) ) ;
#22 = CARTESIAN_POINT ( 'NONE',  ( 0.0000000000000000000, 6.500000000000000888, 0.0000000000000000000 ) ) ;
#23 = APPROVAL ( #39, 'UNSPECIFIED' ) ;
#24 = DESIGN_CONTEXT ( 'detailed design', #35, 'design' ) ;
#25 = PERSON_AND_ORGANIZATION_ROLE ( 'creator' ) ;
#26 = APPROVAL_ROLE ( '' ) ;
#27 = CARTESIAN_POINT ( 'NONE',  ( 0.0000000000000000000, 6.500000000000000888, 0.0000000000000000000 ) ) ;
#28 = DIRECTION ( 'NONE',  ( 0.0000000000000000000, -1.000000000000000000, 0.0000000000000000000 ) ) ;
#29 = CARTESIAN_POINT ( 'NONE',  ( 0.0000000000000000000, 0.0000000000000000000, 0.0000000000000000000 ) ) ;
#30 = PRODUCT_DEFINITION ( 'UNKNOWN', '', #20, #24 ) ;
#31 = MANIFOLD_SOLID_BREP ( 'Chanfrein1', #82 ) ;
#32 = CARTESIAN_POINT ( 'NONE',  ( 0.0000000000000000000, 6.500000000000000888, -2.500000000000000000 ) ) ;
#33 = AXIS2_PLACEMENT_3D ( 'NONE', #112, #115, #133 ) ;
#34 = APPROVAL_STATUS ( 'not_yet_approved' ) ;
#35 = APPLICATION_CONTEXT ( 'configuration controlled 3d designs of mechanical parts and assemblies' ) ;
#36 = PERSON_AND_ORGANIZATION_ROLE ( 'design_owner' ) ;
#37 = DATE_TIME_ROLE ( 'creation_date' ) ;
#38 = DIRECTION ( 'NONE',  ( 0.0000000000000000000, -0.0000000000000000000, 1.000000000000000000 ) ) ;
#39 = APPROVAL_STATUS ( 'not_yet_approved' ) ;
#40 = EDGE_CURVE ( 'NONE', #68, #157, #212, .T. ) ;
#41 = EDGE_CURVE ( 'NONE', #150, #151, #314, .T. ) ;
#42 = VERTEX_POINT ( 'NONE', #79 ) ;
#43 = APPLICATION_PROTOCOL_DEFINITION ( 'international standard', 'config_control_design', 1994, #44 ) ;
#44 = APPLICATION_CONTEXT ( 'configuration controlled 3d designs of mechanical parts and assemblies' ) ;
#45 = VERTEX_POINT ( 'NONE', #214 ) ;
#46 = DIRECTION ( 'NONE',  ( 0.0000000000000000000, 1.000000000000000000, 0.0000000000000000000 ) ) ;
#47 = ORIENTED_EDGE ( 'NONE', *, *, #93, .F. ) ;
#48 = VERTEX_POINT ( 'NONE', #18 ) ;
#49 = ORIENTED_EDGE ( 'NONE', *, *, #144, .T. ) ;
#50 = DIRECTION ( 'NONE',  ( 0.0000000000000000000, 0.0000000000000000000, 1.000000000000000000 ) ) ;
#51 =( NAMED_UNIT ( * ) SI_UNIT ( $, .STERADIAN. ) SOLID_ANGLE_UNIT ( ) );
#52 =( NAMED_UNIT ( * ) PLANE_ANGLE_UNIT ( ) SI_UNIT ( $, .RADIAN. ) );
#53 = PERSON_AND_ORGANIZATION ( #65, #288 ) ;
#54 = SECURITY_CLASSIFICATION ( '', '', #11 ) ;
#55 = ORIENTED_EDGE ( 'NONE', *, *, #83, .T. ) ;
#56 = EDGE_LOOP ( 'NONE', ( #322, #315 ) ) ;
#57 = CARTESIAN_POINT ( 'NONE',  ( 0.0000000000000000000, 0.0000000000000000000, 0.0000000000000000000 ) ) ;
#58 = EDGE_CURVE ( 'NONE', #327, #68, #215, .T. ) ;
#59 = ADVANCED_FACE ( 'NONE', ( #226, #218 ), #81, .F. ) ;
#60 = APPROVAL_PERSON_ORGANIZATION ( #53, #23, #26 ) ;
#61 = COORDINATED_UNIVERSAL_TIME_OFFSET ( 1, 0, .AHEAD. ) ;
#62 = APPROVAL_DATE_TIME ( #107, #23 ) ;
#63 = AXIS2_PLACEMENT_3D ( 'NONE', #86, #85, #78 ) ;
#64 = COORDINATED_UNIVERSAL_TIME_OFFSET ( 1, 0, .AHEAD. ) ;
#65 = PERSON ( 'UNSPECIFIED', 'UNSPECIFIED', 'UNSPECIFIED', ('UNSPECIFIED'), ('UNSPECIFIED'), ('UNSPECIFIED') ) ;
#66 = LOCAL_TIME ( 8, 10, 18.00000000000000000, #64 ) ;
#67 = ORIENTED_EDGE ( 'NONE', *, *, #76, .F. ) ;
#68 = VERTEX_POINT ( 'NONE', #270 ) ;
#69 = MECHANICAL_CONTEXT ( 'NONE', #44, 'mechanical' ) ;
#70 =( LENGTH_UNIT ( ) NAMED_UNIT ( * ) SI_UNIT ( .MILLI., .METRE. ) );
#71 = CALENDAR_DATE ( 2019, 9, 10 ) ;
#72 = PRODUCT_RELATED_PRODUCT_CATEGORY ( 'detail', '', ( #374 ) ) ;
#73 = DIRECTION ( 'NONE',  ( 0.0000000000000000000, 0.0000000000000000000, 1.000000000000000000 ) ) ;
#74 = APPLICATION_PROTOCOL_DEFINITION ( 'international standard', 'config_control_design', 1994, #35 ) ;
#75 = CARTESIAN_POINT ( 'NONE',  ( 0.0000000000000000000, 6.500000000000000888, 0.0000000000000000000 ) ) ;
#76 = EDGE_CURVE ( 'NONE', #333, #48, #220, .T. ) ;
#77 = PERSON_AND_ORGANIZATION ( #65, #288 ) ;
#78 = DIRECTION ( 'NONE',  ( 0.0000000000000000000, -0.0000000000000000000, 1.000000000000000000 ) ) ;
#79 = CARTESIAN_POINT ( 'NONE',  ( 0.0000000000000000000, 1.500000000000000000, -2.500000000000000000 ) ) ;
#80 = DIRECTION ( 'NONE',  ( 0.0000000000000000000, 0.0000000000000000000, 1.000000000000000000 ) ) ;
#81 = PLANE ( 'NONE',  #162 ) ;
#82 = CLOSED_SHELL ( 'NONE', ( #326, #359, #282, #340, #320, #350, #59, #370, #378, #367, #291, #89 ) ) ;
#83 = EDGE_CURVE ( 'NONE', #372, #45, #228, .T. ) ;
#84 = DIRECTION ( 'NONE',  ( 0.0000000000000000000, 0.0000000000000000000, -1.000000000000000000 ) ) ;
#85 = DIRECTION ( 'NONE',  ( 0.0000000000000000000, 1.000000000000000000, 0.0000000000000000000 ) ) ;
#86 = CARTESIAN_POINT ( 'NONE',  ( 0.0000000000000000000, 6.500000000000000888, 0.0000000000000000000 ) ) ;
#87 = PLANE ( 'NONE',  #63 ) ;
#88 = DIRECTION ( 'NONE',  ( -0.0000000000000000000, -1.000000000000000000, -0.0000000000000000000 ) ) ;
#89 = ADVANCED_FACE ( 'NONE', ( #229 ), #239, .T. ) ;
#90 = CARTESIAN_POINT ( 'NONE',  ( 0.0000000000000000000, 6.500000000000000888, -2.300000000000003375 ) ) ;
#91 = VERTEX_POINT ( 'NONE', #15 ) ;
#92 = ORIENTED_EDGE ( 'NONE', *, *, #99, .F. ) ;
#93 = EDGE_CURVE ( 'NONE', #327, #261, #145, .T. ) ;
#94 = LOCAL_TIME ( 8, 10, 18.00000000000000000, #61 ) ;
#95 = EDGE_CURVE ( 'NONE', #48, #42, #233, .T. ) ;
#96 = EDGE_CURVE ( 'NONE', #91, #365, #240, .T. ) ;
#97 = LINE ( 'NONE', #317, #167 ) ;
#98 = PERSON_AND_ORGANIZATION ( #65, #288 ) ;
#99 = EDGE_CURVE ( 'NONE', #151, #150, #219, .T. ) ;
#100 = LOCAL_TIME ( 8, 10, 18.00000000000000000, #128 ) ;
#101 = PERSON_AND_ORGANIZATION ( #65, #288 ) ;
#102 = VERTEX_POINT ( 'NONE', #14 ) ;
#103 = EDGE_CURVE ( 'NONE', #261, #327, #231, .T. ) ;
#104 = CC_DESIGN_PERSON_AND_ORGANIZATION_ASSIGNMENT ( #77, #6, ( #20 ) ) ;
#105 = DIRECTION ( 'NONE',  ( 1.000000000000000000, 0.0000000000000000000, 0.0000000000000000000 ) ) ;
#106 = LOCAL_TIME ( 8, 10, 18.00000000000000000, #111 ) ;
#107 = DATE_AND_TIME ( #385, #94 ) ;
#108 = DATE_AND_TIME ( #109, #66 ) ;
#109 = CALENDAR_DATE ( 2019, 9, 10 ) ;
#110 = APPROVAL_PERSON_ORGANIZATION ( #101, #383, #7 ) ;
#111 = COORDINATED_UNIVERSAL_TIME_OFFSET ( 1, 0, .AHEAD. ) ;
#112 = CARTESIAN_POINT ( 'NONE',  ( 0.0000000000000000000, -5.000000000000000000, 0.0000000000000000000 ) ) ;
#113 = CARTESIAN_POINT ( 'NONE',  ( 0.0000000000000000000, -5.000000000000000000, 0.0000000000000000000 ) ) ;
#114 = EDGE_CURVE ( 'NONE', #333, #102, #235, .T. ) ;
#115 = DIRECTION ( 'NONE',  ( -0.0000000000000000000, 1.000000000000000000, -0.0000000000000000000 ) ) ;
#116 = DATE_AND_TIME ( #280, #106 ) ;
#117 = APPROVAL_DATE_TIME ( #116, #383 ) ;
#118 = PERSON_AND_ORGANIZATION ( #65, #288 ) ;
#119 = PERSON_AND_ORGANIZATION ( #65, #288 ) ;
#120 = FACE_OUTER_BOUND ( 'NONE', #56, .T. ) ;
#121 = CALENDAR_DATE ( 2019, 9, 10 ) ;
#122 = CC_DESIGN_SECURITY_CLASSIFICATION ( #54, ( #20 ) ) ;
#123 = DATE_AND_TIME ( #121, #284 ) ;
#124 = DIRECTION ( 'NONE',  ( -0.0000000000000000000, 1.000000000000000000, -0.0000000000000000000 ) ) ;
#125 = DIRECTION ( 'NONE',  ( 0.0000000000000000000, -0.0000000000000000000, 1.000000000000000000 ) ) ;
#126 = DIRECTION ( 'NONE',  ( 0.0000000000000000000, 1.000000000000000000, 0.0000000000000000000 ) ) ;
#127 = APPROVAL_PERSON_ORGANIZATION ( #292, #264, #10 ) ;
#128 = COORDINATED_UNIVERSAL_TIME_OFFSET ( 1, 0, .AHEAD. ) ;
#129 = CARTESIAN_POINT ( 'NONE',  ( 0.0000000000000000000, 1.500000000000000000, -5.000000000000000000 ) ) ;
#130 = DATE_AND_TIME ( #71, #100 ) ;
#131 = APPROVAL_DATE_TIME ( #130, #264 ) ;
#132 = DIRECTION ( 'NONE',  ( -0.0000000000000000000, 1.000000000000000000, -0.0000000000000000000 ) ) ;
#133 = DIRECTION ( 'NONE',  ( 0.0000000000000000000, 0.0000000000000000000, 1.000000000000000000 ) ) ;
#134 = EDGE_CURVE ( 'NONE', #365, #91, #241, .T. ) ;
#135 = CARTESIAN_POINT ( 'NONE',  ( 0.0000000000000000000, 1.500000000000000000, 0.0000000000000000000 ) ) ;
#136 = DIRECTION ( 'NONE',  ( 0.0000000000000000000, 0.0000000000000000000, 1.000000000000000000 ) ) ;
#137 = EDGE_CURVE ( 'NONE', #365, #151, #246, .T. ) ;
#138 = CARTESIAN_POINT ( 'NONE',  ( 0.0000000000000000000, 1.500000000000000000, 0.0000000000000000000 ) ) ;
#139 = CARTESIAN_POINT ( 'NONE',  ( 0.0000000000000000000, -5.000000000000000000, 0.0000000000000000000 ) ) ;
#140 = EDGE_CURVE ( 'NONE', #48, #333, #244, .T. ) ;
#141 = EDGE_CURVE ( 'NONE', #372, #48, #249, .T. ) ;
#142 = CC_DESIGN_PERSON_AND_ORGANIZATION_ASSIGNMENT ( #381, #36, ( #374 ) ) ;
#143 = CARTESIAN_POINT ( 'NONE',  ( 0.0000000000000000000, -5.000000000000000000, 2.500000000000000000 ) ) ;
#144 = EDGE_CURVE ( 'NONE', #45, #372, #242, .T. ) ;
#145 = CIRCLE ( 'NONE', #196, 2.500000000000000000 ) ;
#146 = EDGE_CURVE ( 'NONE', #42, #102, #258, .T. ) ;
#147 = PLANE ( 'NONE',  #309 ) ;
#148 = CARTESIAN_POINT ( 'NONE',  ( 3.061616997868383141E-16, 6.299999999999999822, 2.500000000000000000 ) ) ;
#149 = DIRECTION ( 'NONE',  ( 0.0000000000000000000, 0.0000000000000000000, -1.000000000000000000 ) ) ;
#150 = VERTEX_POINT ( 'NONE', #343 ) ;
#151 = VERTEX_POINT ( 'NONE', #357 ) ;
#152 = EDGE_LOOP ( 'NONE', ( #92, #308 ) ) ;
#153 = EDGE_CURVE ( 'NONE', #45, #333, #262, .T. ) ;
#154 = EDGE_CURVE ( 'NONE', #91, #150, #256, .T. ) ;
#155 = ORIENTED_EDGE ( 'NONE', *, *, #96, .F. ) ;
#156 = CARTESIAN_POINT ( 'NONE',  ( 0.0000000000000000000, 0.0000000000000000000, 0.0000000000000000000 ) ) ;
#157 = VERTEX_POINT ( 'NONE', #337 ) ;
#158 = ORIENTED_EDGE ( 'NONE', *, *, #95, .F. ) ;
#159 = EDGE_CURVE ( 'NONE', #261, #157, #97, .T. ) ;
#160 = ORIENTED_EDGE ( 'NONE', *, *, #114, .F. ) ;
#161 = EDGE_CURVE ( 'NONE', #102, #42, #252, .T. ) ;
#162 = AXIS2_PLACEMENT_3D ( 'NONE', #342, #181, #38 ) ;
#163 = ORIENTED_EDGE ( 'NONE', *, *, #146, .T. ) ;
#164 = AXIS2_PLACEMENT_3D ( 'NONE', #364, #299, #2 ) ;
#165 = CC_DESIGN_PERSON_AND_ORGANIZATION_ASSIGNMENT ( #118, #12, ( #20 ) ) ;
#166 = AXIS2_PLACEMENT_3D ( 'NONE', #172, #178, #80 ) ;
#167 = VECTOR ( 'NONE', #289, 1000.000000000000000 ) ;
#168 = CIRCLE ( 'NONE', #232, 2.500000000000000000 ) ;
#169 = FACE_OUTER_BOUND ( 'NONE', #332, .T. ) ;
#170 = AXIS2_PLACEMENT_3D ( 'NONE', #156, #293, #329 ) ;
#171 = ORIENTED_EDGE ( 'NONE', *, *, #58, .T. ) ;
#172 = CARTESIAN_POINT ( 'NONE',  ( 0.0000000000000000000, 0.0000000000000000000, 0.0000000000000000000 ) ) ;
#173 = ORIENTED_EDGE ( 'NONE', *, *, #153, .F. ) ;
#174 = ORIENTED_EDGE ( 'NONE', *, *, #40, .T. ) ;
#175 = ORIENTED_EDGE ( 'NONE', *, *, #159, .F. ) ;
#176 = EDGE_CURVE ( 'NONE', #157, #68, #168, .T. ) ;
#177 = CARTESIAN_POINT ( 'NONE',  ( 0.0000000000000000000, 6.500000000000000888, 0.0000000000000000000 ) ) ;
#178 = DIRECTION ( 'NONE',  ( 0.0000000000000000000, 1.000000000000000000, 0.0000000000000000000 ) ) ;
#179 = DIRECTION ( 'NONE',  ( -0.0000000000000000000, -1.000000000000000000, -0.0000000000000000000 ) ) ;
#180 = AXIS2_PLACEMENT_3D ( 'NONE', #22, #297, #21 ) ;
#181 = DIRECTION ( 'NONE',  ( 0.0000000000000000000, 1.000000000000000000, 0.0000000000000000000 ) ) ;
#182 = DIRECTION ( 'NONE',  ( 0.0000000000000000000, -1.000000000000000000, 0.0000000000000000000 ) ) ;
#183 = AXIS2_PLACEMENT_3D ( 'NONE', #27, #9, #19 ) ;
#184 = CARTESIAN_POINT ( 'NONE',  ( 0.0000000000000000000, 1.500000000000000000, 0.0000000000000000000 ) ) ;
#185 = DIRECTION ( 'NONE',  ( 0.0000000000000000000, 0.0000000000000000000, -1.000000000000000000 ) ) ;
#186 = ORIENTED_EDGE ( 'NONE', *, *, #154, .F. ) ;
#187 = ORIENTED_EDGE ( 'NONE', *, *, #141, .T. ) ;
#188 = ORIENTED_EDGE ( 'NONE', *, *, #41, .T. ) ;
#189 = ORIENTED_EDGE ( 'NONE', *, *, #161, .T. ) ;
#190 = ORIENTED_EDGE ( 'NONE', *, *, #137, .F. ) ;
#191 = PLANE ( 'NONE',  #251 ) ;
#192 = DIRECTION ( 'NONE',  ( 0.0000000000000000000, -1.000000000000000000, 0.0000000000000000000 ) ) ;
#193 = EDGE_LOOP ( 'NONE', ( #173, #366, #187, #67 ) ) ;
#194 = ORIENTED_EDGE ( 'NONE', *, *, #95, .T. ) ;
#195 = FACE_OUTER_BOUND ( 'NONE', #253, .T. ) ;
#196 = AXIS2_PLACEMENT_3D ( 'NONE', #139, #28, #4 ) ;
#197 = DIRECTION ( 'NONE',  ( 0.0000000000000000000, 0.0000000000000000000, -1.000000000000000000 ) ) ;
#198 = DIRECTION ( 'NONE',  ( 0.0000000000000000000, -0.0000000000000000000, -1.000000000000000000 ) ) ;
#199 = DIRECTION ( 'NONE',  ( -0.0000000000000000000, -1.000000000000000000, -0.0000000000000000000 ) ) ;
#200 = CARTESIAN_POINT ( 'NONE',  ( 0.0000000000000000000, -5.000000000000000000, 0.0000000000000000000 ) ) ;
#201 = AXIS2_PLACEMENT_3D ( 'NONE', #355, #377, #369 ) ;
#202 = DIRECTION ( 'NONE',  ( -0.0000000000000000000, -1.000000000000000000, -0.0000000000000000000 ) ) ;
#203 = DIRECTION ( 'NONE',  ( 0.0000000000000000000, -1.000000000000000000, 0.0000000000000000000 ) ) ;
#204 = AXIS2_PLACEMENT_3D ( 'NONE', #29, #46, #50 ) ;
#205 = DIRECTION ( 'NONE',  ( 0.0000000000000000000, 0.0000000000000000000, 1.000000000000000000 ) ) ;
#206 = ORIENTED_EDGE ( 'NONE', *, *, #161, .F. ) ;
#207 = EDGE_LOOP ( 'NONE', ( #175, #47, #171, #174 ) ) ;
#208 = CARTESIAN_POINT ( 'NONE',  ( 0.0000000000000000000, -5.000000000000000000, 2.500000000000000000 ) ) ;
#209 = CARTESIAN_POINT ( 'NONE',  ( 0.0000000000000000000, 6.500000000000000888, 0.0000000000000000000 ) ) ;
#210 = EDGE_LOOP ( 'NONE', ( #160, #334, #194, #163 ) ) ;
#211 = ORIENTED_EDGE ( 'NONE', *, *, #103, .F. ) ;
#212 = CIRCLE ( 'NONE', #170, 2.500000000000000000 ) ;
#213 = AXIS2_PLACEMENT_3D ( 'NONE', #290, #295, #296 ) ;
#214 = CARTESIAN_POINT ( 'NONE',  ( 2.939152317953649571E-16, 6.500000000000000888, 2.300000000000003375 ) ) ;
#215 = LINE ( 'NONE', #208, #222 ) ;
#216 = AXIS2_PLACEMENT_3D ( 'NONE', #338, #339, #341 ) ;
#217 = EDGE_LOOP ( 'NONE', ( #376, #307 ) ) ;
#218 = FACE_OUTER_BOUND ( 'NONE', #152, .T. ) ;
#219 = CIRCLE ( 'NONE', #204, 5.000000000000000000 ) ;
#220 = CIRCLE ( 'NONE', #164, 2.500000000000000000 ) ;
#221 = AXIS2_PLACEMENT_3D ( 'NONE', #346, #347, #348 ) ;
#222 = VECTOR ( 'NONE', #124, 1000.000000000000000 ) ;
#223 = AXIS2_PLACEMENT_3D ( 'NONE', #353, #354, #356 ) ;
#224 = ADVANCED_BREP_SHAPE_REPRESENTATION ( 'Axe pivot', ( #31, #16 ), #236 ) ;
#225 = AXIS2_PLACEMENT_3D ( 'NONE', #281, #274, #310 ) ;
#226 = FACE_BOUND ( 'NONE', #380, .T. ) ;
#227 = AXIS2_PLACEMENT_3D ( 'NONE', #255, #248, #205 ) ;
#228 = CIRCLE ( 'NONE', #180, 2.300000000000003375 ) ;
#229 = FACE_OUTER_BOUND ( 'NONE', #193, .T. ) ;
#230 = VECTOR ( 'NONE', #360, 1000.000000000000000 ) ;
#231 = CIRCLE ( 'NONE', #213, 2.500000000000000000 ) ;
#232 = AXIS2_PLACEMENT_3D ( 'NONE', #237, #203, #197 ) ;
#233 = LINE ( 'NONE', #32, #230 ) ;
#234 = CARTESIAN_POINT ( 'NONE',  ( 3.061616997868383141E-16, -5.000000000000000000, -2.500000000000000000 ) ) ;
#235 = LINE ( 'NONE', #1, #243 ) ;
#236 =( GEOMETRIC_REPRESENTATION_CONTEXT ( 3 ) GLOBAL_UNCERTAINTY_ASSIGNED_CONTEXT ( ( #263 ) ) GLOBAL_UNIT_ASSIGNED_CONTEXT ( ( #70, #52, #51 ) ) REPRESENTATION_CONTEXT ( 'NONE', 'WORKASPACE' ) );
#237 = CARTESIAN_POINT ( 'NONE',  ( 0.0000000000000000000, 0.0000000000000000000, 0.0000000000000000000 ) ) ;
#238 = DIRECTION ( 'NONE',  ( 0.0000000000000000000, 0.0000000000000000000, -1.000000000000000000 ) ) ;
#239 = CONICAL_SURFACE ( 'NONE', #183, 2.300000000000003375, 0.7853981633974386201 ) ;
#240 = CIRCLE ( 'NONE', #201, 5.000000000000000000 ) ;
#241 = CIRCLE ( 'NONE', #216, 5.000000000000000000 ) ;
#242 = CIRCLE ( 'NONE', #223, 2.300000000000003375 ) ;
#243 = VECTOR ( 'NONE', #371, 1000.000000000000000 ) ;
#244 = CIRCLE ( 'NONE', #221, 2.500000000000000000 ) ;
#245 = CC_DESIGN_PERSON_AND_ORGANIZATION_ASSIGNMENT ( #119, #5, ( #54 ) ) ;
#246 = LINE ( 'NONE', #298, #250 ) ;
#247 = AXIS2_PLACEMENT_3D ( 'NONE', #209, #199, #336 ) ;
#248 = DIRECTION ( 'NONE',  ( 0.0000000000000000000, 1.000000000000000000, 0.0000000000000000000 ) ) ;
#249 = LINE ( 'NONE', #279, #254 ) ;
#250 = VECTOR ( 'NONE', #8, 1000.000000000000000 ) ;
#251 = AXIS2_PLACEMENT_3D ( 'NONE', #200, #192, #198 ) ;
#252 = CIRCLE ( 'NONE', #227, 2.500000000000000000 ) ;
#253 = EDGE_LOOP ( 'NONE', ( #323, #294, #321, #330 ) ) ;
#254 = VECTOR ( 'NONE', #304, 1000.000000000000114 ) ;
#255 = CARTESIAN_POINT ( 'NONE',  ( 0.0000000000000000000, 1.500000000000000000, 0.0000000000000000000 ) ) ;
#256 = LINE ( 'NONE', #319, #259 ) ;
#257 = AXIS2_PLACEMENT_3D ( 'NONE', #177, #182, #238 ) ;
#258 = CIRCLE ( 'NONE', #225, 2.500000000000000000 ) ;
#259 = VECTOR ( 'NONE', #313, 1000.000000000000000 ) ;
#260 = FACE_OUTER_BOUND ( 'NONE', #382, .T. ) ;
#261 = VERTEX_POINT ( 'NONE', #234 ) ;
#262 = LINE ( 'NONE', #358, #285 ) ;
#263 = UNCERTAINTY_MEASURE_WITH_UNIT (LENGTH_MEASURE( 1.000000000000000082E-05 ), #70, 'distance_accuracy_value', 'NONE');
#264 = APPROVAL ( #13, 'UNSPECIFIED' ) ;
#265 = CYLINDRICAL_SURFACE ( 'NONE', #311, 5.000000000000000000 ) ;
#266 = FACE_OUTER_BOUND ( 'NONE', #362, .T. ) ;
#267 = CYLINDRICAL_SURFACE ( 'NONE', #247, 2.500000000000000000 ) ;
#268 = CYLINDRICAL_SURFACE ( 'NONE', #345, 5.000000000000000000 ) ;
#269 = FACE_OUTER_BOUND ( 'NONE', #331, .T. ) ;
#270 = CARTESIAN_POINT ( 'NONE',  ( 0.0000000000000000000, 0.0000000000000000000, 2.500000000000000000 ) ) ;
#271 = FACE_OUTER_BOUND ( 'NONE', #207, .T. ) ;
#272 = CONICAL_SURFACE ( 'NONE', #257, 2.300000000000003375, 0.7853981633974386201 ) ;
#273 = ORIENTED_EDGE ( 'NONE', *, *, #134, .F. ) ;
#274 = DIRECTION ( 'NONE',  ( 0.0000000000000000000, 1.000000000000000000, 0.0000000000000000000 ) ) ;
#275 = FACE_BOUND ( 'NONE', #363, .T. ) ;
#276 = FACE_OUTER_BOUND ( 'NONE', #210, .T. ) ;
#277 = FACE_OUTER_BOUND ( 'NONE', #217, .T. ) ;
#278 = CYLINDRICAL_SURFACE ( 'NONE', #352, 2.500000000000000000 ) ;
#279 = CARTESIAN_POINT ( 'NONE',  ( 0.0000000000000000000, 6.500000000000000888, -2.300000000000003375 ) ) ;
#280 = CALENDAR_DATE ( 2019, 9, 10 ) ;
#281 = CARTESIAN_POINT ( 'NONE',  ( 0.0000000000000000000, 1.500000000000000000, 0.0000000000000000000 ) ) ;
#282 = ADVANCED_FACE ( 'NONE', ( #169 ), #267, .T. ) ;
#283 = CC_DESIGN_PERSON_AND_ORGANIZATION_ASSIGNMENT ( #98, #25, ( #30 ) ) ;
#284 = LOCAL_TIME ( 8, 10, 18.00000000000000000, #312 ) ;
#285 = VECTOR ( 'NONE', #349, 1000.000000000000114 ) ;
#286 = ORIENTED_EDGE ( 'NONE', *, *, #154, .T. ) ;
#287 = CYLINDRICAL_SURFACE ( 'NONE', #33, 2.500000000000000000 ) ;
#288 = ORGANIZATION ( 'UNSPECIFIED', 'UNSPECIFIED', '' ) ;
#289 = DIRECTION ( 'NONE',  ( -0.0000000000000000000, 1.000000000000000000, -0.0000000000000000000 ) ) ;
#290 = CARTESIAN_POINT ( 'NONE',  ( 0.0000000000000000000, -5.000000000000000000, 0.0000000000000000000 ) ) ;
#291 = ADVANCED_FACE ( 'NONE', ( #120 ), #191, .T. ) ;
#292 = PERSON_AND_ORGANIZATION ( #65, #288 ) ;
#293 = DIRECTION ( 'NONE',  ( 0.0000000000000000000, -1.000000000000000000, 0.0000000000000000000 ) ) ;
#294 = ORIENTED_EDGE ( 'NONE', *, *, #153, .T. ) ;
#295 = DIRECTION ( 'NONE',  ( 0.0000000000000000000, -1.000000000000000000, 0.0000000000000000000 ) ) ;
#296 = DIRECTION ( 'NONE',  ( 0.0000000000000000000, 0.0000000000000000000, -1.000000000000000000 ) ) ;
#297 = DIRECTION ( 'NONE',  ( 0.0000000000000000000, 1.000000000000000000, 0.0000000000000000000 ) ) ;
#298 = CARTESIAN_POINT ( 'NONE',  ( 0.0000000000000000000, 1.500000000000000000, -5.000000000000000000 ) ) ;
#299 = DIRECTION ( 'NONE',  ( 0.0000000000000000000, -1.000000000000000000, 0.0000000000000000000 ) ) ;
#300 = FACE_OUTER_BOUND ( 'NONE', #305, .T. ) ;
#301 = ORIENTED_EDGE ( 'NONE', *, *, #176, .F. ) ;
#302 = CYLINDRICAL_SURFACE ( 'NONE', #17, 2.500000000000000000 ) ;
#303 = PRODUCT_DEFINITION_SHAPE ( 'NONE', 'NONE',  #30 ) ;
#304 = DIRECTION ( 'NONE',  ( 0.0000000000000000000, -0.7071067811865544561, -0.7071067811865406894 ) ) ;
#305 = EDGE_LOOP ( 'NONE', ( #55, #49 ) ) ;
#306 = ORIENTED_EDGE ( 'NONE', *, *, #176, .T. ) ;
#307 = ORIENTED_EDGE ( 'NONE', *, *, #96, .T. ) ;
#308 = ORIENTED_EDGE ( 'NONE', *, *, #41, .F. ) ;
#309 = AXIS2_PLACEMENT_3D ( 'NONE', #138, #126, #125 ) ;
#310 = DIRECTION ( 'NONE',  ( 0.0000000000000000000, 0.0000000000000000000, 1.000000000000000000 ) ) ;
#311 = AXIS2_PLACEMENT_3D ( 'NONE', #135, #179, #149 ) ;
#312 = COORDINATED_UNIVERSAL_TIME_OFFSET ( 1, 0, .AHEAD. ) ;
#313 = DIRECTION ( 'NONE',  ( -0.0000000000000000000, -1.000000000000000000, -0.0000000000000000000 ) ) ;
#314 = CIRCLE ( 'NONE', #166, 5.000000000000000000 ) ;
#315 = ORIENTED_EDGE ( 'NONE', *, *, #103, .T. ) ;
#316 = ORIENTED_EDGE ( 'NONE', *, *, #40, .F. ) ;
#317 = CARTESIAN_POINT ( 'NONE',  ( 3.061616997868383141E-16, -5.000000000000000000, -2.500000000000000000 ) ) ;
#318 = SHAPE_DEFINITION_REPRESENTATION ( #303, #224 ) ;
#319 = CARTESIAN_POINT ( 'NONE',  ( 6.123233995736766282E-16, 1.500000000000000000, 5.000000000000000000 ) ) ;
#320 = ADVANCED_FACE ( 'NONE', ( #266 ), #268, .T. ) ;
#321 = ORIENTED_EDGE ( 'NONE', *, *, #140, .F. ) ;
#322 = ORIENTED_EDGE ( 'NONE', *, *, #93, .T. ) ;
#323 = ORIENTED_EDGE ( 'NONE', *, *, #144, .F. ) ;
#324 = ORIENTED_EDGE ( 'NONE', *, *, #114, .T. ) ;
#325 = ORIENTED_EDGE ( 'NONE', *, *, #159, .T. ) ;
#326 = ADVANCED_FACE ( 'NONE', ( #195 ), #272, .T. ) ;
#327 = VERTEX_POINT ( 'NONE', #143 ) ;
#328 = ORIENTED_EDGE ( 'NONE', *, *, #58, .F. ) ;
#329 = DIRECTION ( 'NONE',  ( 0.0000000000000000000, 0.0000000000000000000, -1.000000000000000000 ) ) ;
#330 = ORIENTED_EDGE ( 'NONE', *, *, #141, .F. ) ;
#331 = EDGE_LOOP ( 'NONE', ( #211, #325, #306, #328 ) ) ;
#332 = EDGE_LOOP ( 'NONE', ( #335, #324, #189, #158 ) ) ;
#333 = VERTEX_POINT ( 'NONE', #148 ) ;
#334 = ORIENTED_EDGE ( 'NONE', *, *, #76, .T. ) ;
#335 = ORIENTED_EDGE ( 'NONE', *, *, #140, .T. ) ;
#336 = DIRECTION ( 'NONE',  ( 0.0000000000000000000, 0.0000000000000000000, -1.000000000000000000 ) ) ;
#337 = CARTESIAN_POINT ( 'NONE',  ( 3.061616997868383141E-16, 0.0000000000000000000, -2.500000000000000000 ) ) ;
#338 = CARTESIAN_POINT ( 'NONE',  ( 0.0000000000000000000, 1.500000000000000000, 0.0000000000000000000 ) ) ;
#339 = DIRECTION ( 'NONE',  ( 0.0000000000000000000, 1.000000000000000000, 0.0000000000000000000 ) ) ;
#340 = ADVANCED_FACE ( 'NONE', ( #260 ), #265, .T. ) ;
#341 = DIRECTION ( 'NONE',  ( 0.0000000000000000000, 0.0000000000000000000, 1.000000000000000000 ) ) ;
#342 = CARTESIAN_POINT ( 'NONE',  ( 0.0000000000000000000, 0.0000000000000000000, 0.0000000000000000000 ) ) ;
#343 = CARTESIAN_POINT ( 'NONE',  ( 6.123233995736766282E-16, 0.0000000000000000000, 5.000000000000000000 ) ) ;
#344 = CC_DESIGN_APPROVAL ( #383, ( #20 ) ) ;
#345 = AXIS2_PLACEMENT_3D ( 'NONE', #184, #202, #185 ) ;
#346 = CARTESIAN_POINT ( 'NONE',  ( 0.0000000000000000000, 6.299999999999999822, 0.0000000000000000000 ) ) ;
#347 = DIRECTION ( 'NONE',  ( 0.0000000000000000000, -1.000000000000000000, 0.0000000000000000000 ) ) ;
#348 = DIRECTION ( 'NONE',  ( 0.0000000000000000000, 0.0000000000000000000, 1.000000000000000000 ) ) ;
#349 = DIRECTION ( 'NONE',  ( 8.659560562354850274E-17, -0.7071067811865544561, 0.7071067811865406894 ) ) ;
#350 = ADVANCED_FACE ( 'NONE', ( #275, #277 ), #147, .T. ) ;
#351 = CC_DESIGN_APPROVAL ( #23, ( #30 ) ) ;
#352 = AXIS2_PLACEMENT_3D ( 'NONE', #113, #132, #136 ) ;
#353 = CARTESIAN_POINT ( 'NONE',  ( 0.0000000000000000000, 6.500000000000000888, 0.0000000000000000000 ) ) ;
#354 = DIRECTION ( 'NONE',  ( 0.0000000000000000000, 1.000000000000000000, 0.0000000000000000000 ) ) ;
#355 = CARTESIAN_POINT ( 'NONE',  ( 0.0000000000000000000, 1.500000000000000000, 0.0000000000000000000 ) ) ;
#356 = DIRECTION ( 'NONE',  ( 0.0000000000000000000, 0.0000000000000000000, 1.000000000000000000 ) ) ;
#357 = CARTESIAN_POINT ( 'NONE',  ( 0.0000000000000000000, 0.0000000000000000000, -5.000000000000000000 ) ) ;
#358 = CARTESIAN_POINT ( 'NONE',  ( 2.816687638038916493E-16, 6.500000000000000888, 2.300000000000003375 ) ) ;
#359 = ADVANCED_FACE ( 'NONE', ( #269 ), #278, .T. ) ;
#360 = DIRECTION ( 'NONE',  ( -0.0000000000000000000, -1.000000000000000000, -0.0000000000000000000 ) ) ;
#361 = CC_DESIGN_APPROVAL ( #264, ( #54 ) ) ;
#362 = EDGE_LOOP ( 'NONE', ( #186, #273, #375, #373 ) ) ;
#363 = EDGE_LOOP ( 'NONE', ( #379, #206 ) ) ;
#364 = CARTESIAN_POINT ( 'NONE',  ( 0.0000000000000000000, 6.299999999999999822, 0.0000000000000000000 ) ) ;
#365 = VERTEX_POINT ( 'NONE', #129 ) ;
#366 = ORIENTED_EDGE ( 'NONE', *, *, #83, .F. ) ;
#367 = ADVANCED_FACE ( 'NONE', ( #271 ), #287, .T. ) ;
#368 = CC_DESIGN_DATE_AND_TIME_ASSIGNMENT ( #108, #37, ( #30 ) ) ;
#369 = DIRECTION ( 'NONE',  ( 0.0000000000000000000, 0.0000000000000000000, 1.000000000000000000 ) ) ;
#370 = ADVANCED_FACE ( 'NONE', ( #276 ), #302, .T. ) ;
#371 = DIRECTION ( 'NONE',  ( -0.0000000000000000000, -1.000000000000000000, -0.0000000000000000000 ) ) ;
#372 = VERTEX_POINT ( 'NONE', #90 ) ;
#373 = ORIENTED_EDGE ( 'NONE', *, *, #99, .T. ) ;
#374 = PRODUCT ( 'Axe pivot', 'Axe pivot', '', ( #69 ) ) ;
#375 = ORIENTED_EDGE ( 'NONE', *, *, #137, .T. ) ;
#376 = ORIENTED_EDGE ( 'NONE', *, *, #134, .T. ) ;
#377 = DIRECTION ( 'NONE',  ( 0.0000000000000000000, 1.000000000000000000, 0.0000000000000000000 ) ) ;
#378 = ADVANCED_FACE ( 'NONE', ( #300 ), #87, .T. ) ;
#379 = ORIENTED_EDGE ( 'NONE', *, *, #146, .F. ) ;
#380 = EDGE_LOOP ( 'NONE', ( #316, #301 ) ) ;
#381 = PERSON_AND_ORGANIZATION ( #65, #288 ) ;
#382 = EDGE_LOOP ( 'NONE', ( #155, #286, #188, #190 ) ) ;
#383 = APPROVAL ( #34, 'UNSPECIFIED' ) ;
#384 = CC_DESIGN_DATE_AND_TIME_ASSIGNMENT ( #123, #3, ( #54 ) ) ;
#385 = CALENDAR_DATE ( 2019, 9, 10 ) ;
ENDSEC;
END-ISO-10303-21;
