ISO-10303-21;
HEADER;
FILE_DESCRIPTION (( 'STEP AP214' ),
    '1' );
FILE_NAME ('safran.STEP',
    '2019-10-20T13:08:30',
    ( 'Olivier' ),
    ( 'Microsoft' ),
    'SwSTEP 2.0',
    'SolidWorks 2010',
    '' );
FILE_SCHEMA (( 'AUTOMOTIVE_DESIGN' ));
ENDSEC;

DATA;
#1 = ADVANCED_BREP_SHAPE_REPRESENTATION ( 'safran', ( #121, #6 ), #48 ) ;
#2 = UNCERTAINTY_MEASURE_WITH_UNIT (LENGTH_MEASURE( 1.000000000000000100E-005 ), #228, 'distance_accuracy_value', 'NONE');
#3 = UNCERTAINTY_MEASURE_WITH_UNIT (LENGTH_MEASURE( 1.000000000000000100E-005 ), #153, 'distance_accuracy_value', 'NONE');
#4 = PRESENTATION_LAYER_ASSIGNMENT (  '', '', ( #44 ) ) ;
#5 = MECHANICAL_DESIGN_GEOMETRIC_PRESENTATION_REPRESENTATION (  '', ( #44 ), #43 ) ;
#6 = AXIS2_PLACEMENT_3D ( 'NONE', #109, #110, #111 ) ;
#7 = PRODUCT_DEFINITION ( 'UNKNOWN', '', #182, #124 ) ;
#8 = VECTOR ( 'NONE', #240, 1000.000000000000000 ) ;
#9 = VECTOR ( 'NONE', #158, 1000.000000000000000 ) ;
#10 = LINE ( 'NONE', #157, #9 ) ;
#11 = VECTOR ( 'NONE', #155, 1000.000000000000000 ) ;
#12 = LINE ( 'NONE', #154, #11 ) ;
#13 = VECTOR ( 'NONE', #245, 1000.000000000000000 ) ;
#14 = LINE ( 'NONE', #244, #13 ) ;
#15 = ORIENTED_EDGE ( 'NONE', *, *, #231, .T. ) ;
#16 = VECTOR ( 'NONE', #202, 1000.000000000000000 ) ;
#17 = VECTOR ( 'NONE', #242, 1000.000000000000000 ) ;
#18 = ORIENTED_EDGE ( 'NONE', *, *, #133, .T. ) ;
#19 = PRODUCT ( 'safran', 'safran', '', ( #223 ) ) ;
#20 = ORIENTED_EDGE ( 'NONE', *, *, #232, .T. ) ;
#21 = LINE ( 'NONE', #241, #17 ) ;
#22 = CIRCLE ( 'NONE', #131, 30.00000000000000000 ) ;
#23 = ORIENTED_EDGE ( 'NONE', *, *, #162, .F. ) ;
#24 = LINE ( 'NONE', #196, #16 ) ;
#25 = CIRCLE ( 'NONE', #126, 30.00000000000000000 ) ;
#26 = LINE ( 'NONE', #271, #32 ) ;
#27 = CIRCLE ( 'NONE', #127, 30.00000000000000000 ) ;
#28 = LINE ( 'NONE', #238, #35 ) ;
#29 = LINE ( 'NONE', #243, #8 ) ;
#30 = CIRCLE ( 'NONE', #128, 30.00000000000000000 ) ;
#31 = LINE ( 'NONE', #168, #33 ) ;
#32 = VECTOR ( 'NONE', #201, 1000.000000000000000 ) ;
#33 = VECTOR ( 'NONE', #186, 1000.000000000000000 ) ;
#34 = VECTOR ( 'NONE', #169, 1000.000000000000000 ) ;
#35 = VECTOR ( 'NONE', #239, 1000.000000000000000 ) ;
#36 = ORIENTED_EDGE ( 'NONE', *, *, #235, .T. ) ;
#37 = LINE ( 'NONE', #167, #34 ) ;
#38 =( GEOMETRIC_REPRESENTATION_CONTEXT ( 3 ) GLOBAL_UNCERTAINTY_ASSIGNED_CONTEXT ( ( #122 ) ) GLOBAL_UNIT_ASSIGNED_CONTEXT ( ( #163, #164, #165 ) ) REPRESENTATION_CONTEXT ( 'NONE', 'WORKASPACE' ) );
#39 = ORIENTED_EDGE ( 'NONE', *, *, #137, .F. ) ;
#40 = ORIENTED_EDGE ( 'NONE', *, *, #205, .F. ) ;
#41 = ORIENTED_EDGE ( 'NONE', *, *, #133, .F. ) ;
#42 = SHAPE_DEFINITION_REPRESENTATION ( #123, #1 ) ;
#43 =( GEOMETRIC_REPRESENTATION_CONTEXT ( 3 ) GLOBAL_UNCERTAINTY_ASSIGNED_CONTEXT ( ( #2 ) ) GLOBAL_UNIT_ASSIGNED_CONTEXT ( ( #228, #229, #108 ) ) REPRESENTATION_CONTEXT ( 'NONE', 'WORKASPACE' ) );
#44 = STYLED_ITEM ( 'NONE', ( #45 ), #1 ) ;
#45 = PRESENTATION_STYLE_ASSIGNMENT (( #227 ) ) ;
#46 = SURFACE_STYLE_FILL_AREA ( #225 ) ;
#47 = COLOUR_RGB ( '',0.7921568627450980000, 0.8196078431372548800, 0.9333333333333333500 ) ;
#48 =( GEOMETRIC_REPRESENTATION_CONTEXT ( 3 ) GLOBAL_UNCERTAINTY_ASSIGNED_CONTEXT ( ( #3 ) ) GLOBAL_UNIT_ASSIGNED_CONTEXT ( ( #153, #219, #220 ) ) REPRESENTATION_CONTEXT ( 'NONE', 'WORKASPACE' ) );
#49 = VECTOR ( 'NONE', #147, 1000.000000000000000 ) ;
#50 = LINE ( 'NONE', #146, #49 ) ;
#51 = VECTOR ( 'NONE', #144, 1000.000000000000000 ) ;
#52 = LINE ( 'NONE', #143, #51 ) ;
#53 = VECTOR ( 'NONE', #161, 1000.000000000000000 ) ;
#54 = LINE ( 'NONE', #160, #53 ) ;
#55 = ORIENTED_EDGE ( 'NONE', *, *, #134, .F. ) ;
#56 = STYLED_ITEM ( 'NONE', ( #65 ), #121 ) ;
#57 = CLOSED_SHELL ( 'NONE', ( #119, #115, #118, #117, #114, #116, #113, #120 ) ) ;
#58 = ORIENTED_EDGE ( 'NONE', *, *, #207, .T. ) ;
#59 = ORIENTED_EDGE ( 'NONE', *, *, #206, .F. ) ;
#60 = VECTOR ( 'NONE', #166, 1000.000000000000000 ) ;
#61 = ORIENTED_EDGE ( 'NONE', *, *, #237, .F. ) ;
#62 = FACE_OUTER_BOUND ( 'NONE', #90, .T. ) ;
#63 = ORIENTED_EDGE ( 'NONE', *, *, #137, .T. ) ;
#64 = ORIENTED_EDGE ( 'NONE', *, *, #180, .T. ) ;
#65 = PRESENTATION_STYLE_ASSIGNMENT (( #218 ) ) ;
#66 = SURFACE_STYLE_FILL_AREA ( #216 ) ;
#67 = COLOUR_RGB ( '',0.7921568627450980000, 0.8196078431372548800, 0.9333333333333333500 ) ;
#68 = FACE_OUTER_BOUND ( 'NONE', #88, .T. ) ;
#69 = CYLINDRICAL_SURFACE ( 'NONE', #193, 30.00000000000000000 ) ;
#70 = FACE_OUTER_BOUND ( 'NONE', #89, .T. ) ;
#71 = ORIENTED_EDGE ( 'NONE', *, *, #230, .T. ) ;
#72 = FACE_OUTER_BOUND ( 'NONE', #84, .T. ) ;
#73 = ORIENTED_EDGE ( 'NONE', *, *, #231, .F. ) ;
#74 = ORIENTED_EDGE ( 'NONE', *, *, #138, .F. ) ;
#75 = FACE_OUTER_BOUND ( 'NONE', #91, .T. ) ;
#76 = ORIENTED_EDGE ( 'NONE', *, *, #234, .F. ) ;
#77 = FACE_OUTER_BOUND ( 'NONE', #83, .T. ) ;
#78 = ORIENTED_EDGE ( 'NONE', *, *, #232, .F. ) ;
#79 = CYLINDRICAL_SURFACE ( 'NONE', #136, 30.00000000000000000 ) ;
#80 = FACE_OUTER_BOUND ( 'NONE', #87, .T. ) ;
#81 = ORIENTED_EDGE ( 'NONE', *, *, #180, .F. ) ;
#82 = LINE ( 'NONE', #215, #60 ) ;
#83 = EDGE_LOOP ( 'NONE', ( #99, #100, #101, #102 ) ) ;
#84 = EDGE_LOOP ( 'NONE', ( #63, #41, #59, #58 ) ) ;
#85 = EDGE_LOOP ( 'NONE', ( #64, #61, #23, #15 ) ) ;
#86 = ORIENTED_EDGE ( 'NONE', *, *, #207, .F. ) ;
#87 = EDGE_LOOP ( 'NONE', ( #103, #104, #106, #105, #107, #71 ) ) ;
#88 = EDGE_LOOP ( 'NONE', ( #76, #55, #81, #78, #39, #94 ) ) ;
#89 = EDGE_LOOP ( 'NONE', ( #98, #95, #97, #96 ) ) ;
#90 = EDGE_LOOP ( 'NONE', ( #93, #86, #40, #36 ) ) ;
#91 = EDGE_LOOP ( 'NONE', ( #20, #73, #74, #18 ) ) ;
#92 = FACE_OUTER_BOUND ( 'NONE', #85, .T. ) ;
#93 = ORIENTED_EDGE ( 'NONE', *, *, #208, .T. ) ;
#94 = ORIENTED_EDGE ( 'NONE', *, *, #208, .F. ) ;
#95 = ORIENTED_EDGE ( 'NONE', *, *, #235, .F. ) ;
#96 = ORIENTED_EDGE ( 'NONE', *, *, #233, .T. ) ;
#97 = ORIENTED_EDGE ( 'NONE', *, *, #236, .F. ) ;
#98 = ORIENTED_EDGE ( 'NONE', *, *, #234, .T. ) ;
#99 = ORIENTED_EDGE ( 'NONE', *, *, #134, .T. ) ;
#100 = ORIENTED_EDGE ( 'NONE', *, *, #233, .F. ) ;
#101 = ORIENTED_EDGE ( 'NONE', *, *, #230, .F. ) ;
#102 = ORIENTED_EDGE ( 'NONE', *, *, #237, .T. ) ;
#103 = ORIENTED_EDGE ( 'NONE', *, *, #236, .T. ) ;
#104 = ORIENTED_EDGE ( 'NONE', *, *, #205, .T. ) ;
#105 = ORIENTED_EDGE ( 'NONE', *, *, #138, .T. ) ;
#106 = ORIENTED_EDGE ( 'NONE', *, *, #206, .T. ) ;
#107 = ORIENTED_EDGE ( 'NONE', *, *, #162, .T. ) ;
#108 =( NAMED_UNIT ( * ) SI_UNIT ( $, .STERADIAN. ) SOLID_ANGLE_UNIT ( ) );
#109 = CARTESIAN_POINT ( 'NONE',  ( 0.0000000000000000000, 0.0000000000000000000, 0.0000000000000000000 ) ) ;
#110 = DIRECTION ( 'NONE',  ( 0.0000000000000000000, 0.0000000000000000000, 1.000000000000000000 ) ) ;
#111 = DIRECTION ( 'NONE',  ( 1.000000000000000000, 0.0000000000000000000, 0.0000000000000000000 ) ) ;
#112 = APPLICATION_CONTEXT ( 'automotive_design' ) ;
#113 = ADVANCED_FACE ( 'NONE', ( #80 ), #255, .F. ) ;
#114 = ADVANCED_FACE ( 'NONE', ( #92 ), #79, .T. ) ;
#115 = ADVANCED_FACE ( 'NONE', ( #62 ), #140, .F. ) ;
#116 = ADVANCED_FACE ( 'NONE', ( #77 ), #175, .F. ) ;
#117 = ADVANCED_FACE ( 'NONE', ( #75 ), #141, .F. ) ;
#118 = ADVANCED_FACE ( 'NONE', ( #72 ), #69, .T. ) ;
#119 = ADVANCED_FACE ( 'NONE', ( #70 ), #270, .F. ) ;
#120 = ADVANCED_FACE ( 'NONE', ( #68 ), #264, .T. ) ;
#121 = MANIFOLD_SOLID_BREP ( 'Boss.-Extru.1', #57 ) ;
#122 = UNCERTAINTY_MEASURE_WITH_UNIT (LENGTH_MEASURE( 1.000000000000000100E-005 ), #163, 'distance_accuracy_value', 'NONE');
#123 = PRODUCT_DEFINITION_SHAPE ( 'NONE', 'NONE',  #7 ) ;
#124 = PRODUCT_DEFINITION_CONTEXT ( 'detailed design', #222, 'design' ) ;
#125 = AXIS2_PLACEMENT_3D ( 'NONE', #269, #209, #210 ) ;
#126 = AXIS2_PLACEMENT_3D ( 'NONE', #197, #198, #199 ) ;
#127 = AXIS2_PLACEMENT_3D ( 'NONE', #187, #189, #190 ) ;
#128 = AXIS2_PLACEMENT_3D ( 'NONE', #170, #183, #184 ) ;
#129 = AXIS2_PLACEMENT_3D ( 'NONE', #268, #213, #214 ) ;
#130 = MECHANICAL_DESIGN_GEOMETRIC_PRESENTATION_REPRESENTATION (  '', ( #56 ), #38 ) ;
#131 = AXIS2_PLACEMENT_3D ( 'NONE', #200, #203, #204 ) ;
#132 = PRESENTATION_LAYER_ASSIGNMENT (  '', '', ( #56 ) ) ;
#133 = EDGE_CURVE ( 'NONE', #256, #250, #82, .T. ) ;
#134 = EDGE_CURVE ( 'NONE', #253, #257, #37, .T. ) ;
#135 = AXIS2_PLACEMENT_3D ( 'NONE', #265, #266, #267 ) ;
#136 = AXIS2_PLACEMENT_3D ( 'NONE', #174, #261, #258 ) ;
#137 = EDGE_CURVE ( 'NONE', #177, #250, #30, .T. ) ;
#138 = EDGE_CURVE ( 'NONE', #256, #178, #31, .T. ) ;
#139 = CARTESIAN_POINT ( 'NONE',  ( 30.00000000000021000, 200.0000000000000000, 3.000000000000000000 ) ) ;
#140 = PLANE ( 'NONE',  #192 ) ;
#141 = PLANE ( 'NONE',  #135 ) ;
#142 = DIRECTION ( 'NONE',  ( 0.0000000000000000000, -1.000000000000000000, 0.0000000000000000000 ) ) ;
#143 = CARTESIAN_POINT ( 'NONE',  ( 200.0000000000000000, 0.0000000000000000000, 3.000000000000000000 ) ) ;
#144 = DIRECTION ( 'NONE',  ( 0.0000000000000000000, 1.000000000000000000, 0.0000000000000000000 ) ) ;
#145 = CARTESIAN_POINT ( 'NONE',  ( 200.0000000000000000, 200.0000000000000000, 3.000000000000000000 ) ) ;
#146 = CARTESIAN_POINT ( 'NONE',  ( 30.00000000000021700, 0.0000000000000000000, 3.000000000000000000 ) ) ;
#147 = DIRECTION ( 'NONE',  ( -0.0000000000000000000, -0.0000000000000000000, -1.000000000000000000 ) ) ;
#148 = CARTESIAN_POINT ( 'NONE',  ( 30.00000000000021700, 0.0000000000000000000, 3.000000000000000000 ) ) ;
#149 = CARTESIAN_POINT ( 'NONE',  ( 30.00000000000021700, 0.0000000000000000000, 0.0000000000000000000 ) ) ;
#150 = CARTESIAN_POINT ( 'NONE',  ( 0.0000000000000000000, 169.9999999999998000, 3.000000000000000000 ) ) ;
#151 = CARTESIAN_POINT ( 'NONE',  ( 200.0000000000000000, 0.0000000000000000000, 0.0000000000000000000 ) ) ;
#152 = CARTESIAN_POINT ( 'NONE',  ( 200.0000000000000000, 0.0000000000000000000, 3.000000000000000000 ) ) ;
#153 =( LENGTH_UNIT ( ) NAMED_UNIT ( * ) SI_UNIT ( .MILLI., .METRE. ) );
#154 = CARTESIAN_POINT ( 'NONE',  ( 0.0000000000000000000, 30.00000000000021000, 0.0000000000000000000 ) ) ;
#155 = DIRECTION ( 'NONE',  ( -0.0000000000000000000, -1.000000000000000000, -0.0000000000000000000 ) ) ;
#156 = CARTESIAN_POINT ( 'NONE',  ( 0.0000000000000000000, 169.9999999999998000, 0.0000000000000000000 ) ) ;
#157 = CARTESIAN_POINT ( 'NONE',  ( 200.0000000000000000, 0.0000000000000000000, 3.000000000000000000 ) ) ;
#158 = DIRECTION ( 'NONE',  ( -0.0000000000000000000, -0.0000000000000000000, -1.000000000000000000 ) ) ;
#159 = CARTESIAN_POINT ( 'NONE',  ( 200.0000000000000000, 200.0000000000000000, 0.0000000000000000000 ) ) ;
#160 = CARTESIAN_POINT ( 'NONE',  ( 200.0000000000000000, 200.0000000000000000, 3.000000000000000000 ) ) ;
#161 = DIRECTION ( 'NONE',  ( -0.0000000000000000000, -0.0000000000000000000, -1.000000000000000000 ) ) ;
#162 = EDGE_CURVE ( 'NONE', #178, #251, #27, .T. ) ;
#163 =( LENGTH_UNIT ( ) NAMED_UNIT ( * ) SI_UNIT ( .MILLI., .METRE. ) );
#164 =( NAMED_UNIT ( * ) PLANE_ANGLE_UNIT ( ) SI_UNIT ( $, .RADIAN. ) );
#165 =( NAMED_UNIT ( * ) SI_UNIT ( $, .STERADIAN. ) SOLID_ANGLE_UNIT ( ) );
#166 = DIRECTION ( 'NONE',  ( -0.0000000000000000000, -0.0000000000000000000, -1.000000000000000000 ) ) ;
#167 = CARTESIAN_POINT ( 'NONE',  ( 30.00000000000021000, 0.0000000000000000000, 0.0000000000000000000 ) ) ;
#168 = CARTESIAN_POINT ( 'NONE',  ( 0.0000000000000000000, 30.00000000000021000, 3.000000000000000000 ) ) ;
#169 = DIRECTION ( 'NONE',  ( 1.000000000000000000, 0.0000000000000000000, 0.0000000000000000000 ) ) ;
#170 = CARTESIAN_POINT ( 'NONE',  ( 30.00000000000000000, 170.0000000000000000, 0.0000000000000000000 ) ) ;
#171 = CARTESIAN_POINT ( 'NONE',  ( 30.00000000000021000, 0.0000000000000000000, 3.000000000000000000 ) ) ;
#172 = DIRECTION ( 'NONE',  ( -1.000000000000000000, 0.0000000000000000000, 0.0000000000000000000 ) ) ;
#173 = DIRECTION ( 'NONE',  ( -0.0000000000000000000, 0.0000000000000000000, -1.000000000000000000 ) ) ;
#174 = CARTESIAN_POINT ( 'NONE',  ( 30.00000000000000000, 30.00000000000000000, 3.000000000000000000 ) ) ;
#175 = PLANE ( 'NONE',  #194 ) ;
#176 = VERTEX_POINT ( 'NONE', #188 ) ;
#177 = VERTEX_POINT ( 'NONE', #185 ) ;
#178 = VERTEX_POINT ( 'NONE', #191 ) ;
#179 = VERTEX_POINT ( 'NONE', #211 ) ;
#180 = EDGE_CURVE ( 'NONE', #176, #253, #25, .T. ) ;
#181 = AXIS2_PLACEMENT_3D ( 'NONE', #254, #173, #172 ) ;
#182 = PRODUCT_DEFINITION_FORMATION_WITH_SPECIFIED_SOURCE ( 'ANY', '', #19, .NOT_KNOWN. ) ;
#183 = DIRECTION ( 'NONE',  ( 0.0000000000000000000, 0.0000000000000000000, 1.000000000000000000 ) ) ;
#184 = DIRECTION ( 'NONE',  ( -1.000000000000000000, 0.0000000000000000000, 0.0000000000000000000 ) ) ;
#185 = CARTESIAN_POINT ( 'NONE',  ( 30.00000000000021000, 200.0000000000000000, 0.0000000000000000000 ) ) ;
#186 = DIRECTION ( 'NONE',  ( -0.0000000000000000000, -1.000000000000000000, -0.0000000000000000000 ) ) ;
#187 = CARTESIAN_POINT ( 'NONE',  ( 30.00000000000000000, 30.00000000000000000, 3.000000000000000000 ) ) ;
#188 = CARTESIAN_POINT ( 'NONE',  ( 0.0000000000000000000, 30.00000000000021000, 0.0000000000000000000 ) ) ;
#189 = DIRECTION ( 'NONE',  ( 0.0000000000000000000, 0.0000000000000000000, 1.000000000000000000 ) ) ;
#190 = DIRECTION ( 'NONE',  ( -1.000000000000000000, 0.0000000000000000000, 0.0000000000000000000 ) ) ;
#191 = CARTESIAN_POINT ( 'NONE',  ( 0.0000000000000000000, 30.00000000000021000, 3.000000000000000000 ) ) ;
#192 = AXIS2_PLACEMENT_3D ( 'NONE', #139, #142, #246 ) ;
#193 = AXIS2_PLACEMENT_3D ( 'NONE', #247, #248, #263 ) ;
#194 = AXIS2_PLACEMENT_3D ( 'NONE', #171, #249, #262 ) ;
#195 = APPLICATION_PROTOCOL_DEFINITION ( 'draft international standard', 'automotive_design', 1998, #222 ) ;
#196 = CARTESIAN_POINT ( 'NONE',  ( 30.00000000000021000, 0.0000000000000000000, 3.000000000000000000 ) ) ;
#197 = CARTESIAN_POINT ( 'NONE',  ( 30.00000000000000000, 30.00000000000000000, 0.0000000000000000000 ) ) ;
#198 = DIRECTION ( 'NONE',  ( 0.0000000000000000000, 0.0000000000000000000, 1.000000000000000000 ) ) ;
#199 = DIRECTION ( 'NONE',  ( -1.000000000000000000, 0.0000000000000000000, 0.0000000000000000000 ) ) ;
#200 = CARTESIAN_POINT ( 'NONE',  ( 30.00000000000000000, 170.0000000000000000, 3.000000000000000000 ) ) ;
#201 = DIRECTION ( 'NONE',  ( -1.000000000000000000, -0.0000000000000000000, -0.0000000000000000000 ) ) ;
#202 = DIRECTION ( 'NONE',  ( 1.000000000000000000, 0.0000000000000000000, 0.0000000000000000000 ) ) ;
#203 = DIRECTION ( 'NONE',  ( 0.0000000000000000000, 0.0000000000000000000, 1.000000000000000000 ) ) ;
#204 = DIRECTION ( 'NONE',  ( -1.000000000000000000, 0.0000000000000000000, 0.0000000000000000000 ) ) ;
#205 = EDGE_CURVE ( 'NONE', #252, #179, #26, .T. ) ;
#206 = EDGE_CURVE ( 'NONE', #179, #256, #22, .T. ) ;
#207 = EDGE_CURVE ( 'NONE', #179, #177, #28, .T. ) ;
#208 = EDGE_CURVE ( 'NONE', #259, #177, #21, .T. ) ;
#209 = DIRECTION ( 'NONE',  ( -1.000000000000000000, 0.0000000000000000000, 0.0000000000000000000 ) ) ;
#210 = DIRECTION ( 'NONE',  ( 0.0000000000000000000, 0.0000000000000000000, 1.000000000000000000 ) ) ;
#211 = CARTESIAN_POINT ( 'NONE',  ( 30.00000000000021000, 200.0000000000000000, 3.000000000000000000 ) ) ;
#212 = FILL_AREA_STYLE_COLOUR ( '', #67 ) ;
#213 = DIRECTION ( 'NONE',  ( -0.0000000000000000000, 0.0000000000000000000, -1.000000000000000000 ) ) ;
#214 = DIRECTION ( 'NONE',  ( -1.000000000000000000, 0.0000000000000000000, 0.0000000000000000000 ) ) ;
#215 = CARTESIAN_POINT ( 'NONE',  ( 0.0000000000000000000, 169.9999999999998000, 3.000000000000000000 ) ) ;
#216 = FILL_AREA_STYLE ('',( #212 ) ) ;
#217 = SURFACE_SIDE_STYLE ('',( #66 ) ) ;
#218 = SURFACE_STYLE_USAGE ( .BOTH. , #217 ) ;
#219 =( NAMED_UNIT ( * ) PLANE_ANGLE_UNIT ( ) SI_UNIT ( $, .RADIAN. ) );
#220 =( NAMED_UNIT ( * ) SI_UNIT ( $, .STERADIAN. ) SOLID_ANGLE_UNIT ( ) );
#221 = APPLICATION_PROTOCOL_DEFINITION ( 'draft international standard', 'automotive_design', 1998, #112 ) ;
#222 = APPLICATION_CONTEXT ( 'automotive_design' ) ;
#223 = PRODUCT_CONTEXT ( 'NONE', #112, 'mechanical' ) ;
#224 = FILL_AREA_STYLE_COLOUR ( '', #47 ) ;
#225 = FILL_AREA_STYLE ('',( #224 ) ) ;
#226 = SURFACE_SIDE_STYLE ('',( #46 ) ) ;
#227 = SURFACE_STYLE_USAGE ( .BOTH. , #226 ) ;
#228 =( LENGTH_UNIT ( ) NAMED_UNIT ( * ) SI_UNIT ( .MILLI., .METRE. ) );
#229 =( NAMED_UNIT ( * ) PLANE_ANGLE_UNIT ( ) SI_UNIT ( $, .RADIAN. ) );
#230 = EDGE_CURVE ( 'NONE', #251, #260, #24, .T. ) ;
#231 = EDGE_CURVE ( 'NONE', #178, #176, #14, .T. ) ;
#232 = EDGE_CURVE ( 'NONE', #250, #176, #12, .T. ) ;
#233 = EDGE_CURVE ( 'NONE', #260, #257, #10, .T. ) ;
#234 = EDGE_CURVE ( 'NONE', #257, #259, #29, .T. ) ;
#235 = EDGE_CURVE ( 'NONE', #252, #259, #54, .T. ) ;
#236 = EDGE_CURVE ( 'NONE', #260, #252, #52, .T. ) ;
#237 = EDGE_CURVE ( 'NONE', #251, #253, #50, .T. ) ;
#238 = CARTESIAN_POINT ( 'NONE',  ( 30.00000000000021000, 200.0000000000000000, 3.000000000000000000 ) ) ;
#239 = DIRECTION ( 'NONE',  ( -0.0000000000000000000, -0.0000000000000000000, -1.000000000000000000 ) ) ;
#240 = DIRECTION ( 'NONE',  ( 0.0000000000000000000, 1.000000000000000000, 0.0000000000000000000 ) ) ;
#241 = CARTESIAN_POINT ( 'NONE',  ( 30.00000000000021000, 200.0000000000000000, 0.0000000000000000000 ) ) ;
#242 = DIRECTION ( 'NONE',  ( -1.000000000000000000, -0.0000000000000000000, -0.0000000000000000000 ) ) ;
#243 = CARTESIAN_POINT ( 'NONE',  ( 200.0000000000000000, 0.0000000000000000000, 0.0000000000000000000 ) ) ;
#244 = CARTESIAN_POINT ( 'NONE',  ( 0.0000000000000000000, 30.00000000000021000, 3.000000000000000000 ) ) ;
#245 = DIRECTION ( 'NONE',  ( -0.0000000000000000000, -0.0000000000000000000, -1.000000000000000000 ) ) ;
#246 = DIRECTION ( 'NONE',  ( 0.0000000000000000000, -0.0000000000000000000, -1.000000000000000000 ) ) ;
#247 = CARTESIAN_POINT ( 'NONE',  ( 30.00000000000000000, 170.0000000000000000, 3.000000000000000000 ) ) ;
#248 = DIRECTION ( 'NONE',  ( -0.0000000000000000000, -0.0000000000000000000, -1.000000000000000000 ) ) ;
#249 = DIRECTION ( 'NONE',  ( 0.0000000000000000000, 1.000000000000000000, 0.0000000000000000000 ) ) ;
#250 = VERTEX_POINT ( 'NONE', #156 ) ;
#251 = VERTEX_POINT ( 'NONE', #148 ) ;
#252 = VERTEX_POINT ( 'NONE', #145 ) ;
#253 = VERTEX_POINT ( 'NONE', #149 ) ;
#254 = CARTESIAN_POINT ( 'NONE',  ( 30.00000000000000000, 170.0000000000000000, 3.000000000000000000 ) ) ;
#255 = PLANE ( 'NONE',  #181 ) ;
#256 = VERTEX_POINT ( 'NONE', #150 ) ;
#257 = VERTEX_POINT ( 'NONE', #151 ) ;
#258 = DIRECTION ( 'NONE',  ( -1.000000000000000000, 0.0000000000000000000, 0.0000000000000000000 ) ) ;
#259 = VERTEX_POINT ( 'NONE', #159 ) ;
#260 = VERTEX_POINT ( 'NONE', #152 ) ;
#261 = DIRECTION ( 'NONE',  ( -0.0000000000000000000, -0.0000000000000000000, -1.000000000000000000 ) ) ;
#262 = DIRECTION ( 'NONE',  ( 0.0000000000000000000, -0.0000000000000000000, 1.000000000000000000 ) ) ;
#263 = DIRECTION ( 'NONE',  ( -1.000000000000000000, 0.0000000000000000000, 0.0000000000000000000 ) ) ;
#264 = PLANE ( 'NONE',  #129 ) ;
#265 = CARTESIAN_POINT ( 'NONE',  ( 0.0000000000000000000, 30.00000000000021000, 3.000000000000000000 ) ) ;
#266 = DIRECTION ( 'NONE',  ( 1.000000000000000000, 0.0000000000000000000, 0.0000000000000000000 ) ) ;
#267 = DIRECTION ( 'NONE',  ( 0.0000000000000000000, 0.0000000000000000000, -1.000000000000000000 ) ) ;
#268 = CARTESIAN_POINT ( 'NONE',  ( 30.00000000000000000, 170.0000000000000000, 0.0000000000000000000 ) ) ;
#269 = CARTESIAN_POINT ( 'NONE',  ( 200.0000000000000000, 0.0000000000000000000, 3.000000000000000000 ) ) ;
#270 = PLANE ( 'NONE',  #125 ) ;
#271 = CARTESIAN_POINT ( 'NONE',  ( 30.00000000000021000, 200.0000000000000000, 3.000000000000000000 ) ) ;
#272 = PRODUCT_RELATED_PRODUCT_CATEGORY ( 'part', '', ( #19 ) ) ;
ENDSEC;
END-ISO-10303-21;
