ISO-10303-21;
HEADER;
/* Generated by software containing ST-Developer
 * from STEP Tools, Inc. (www.steptools.com) 
 */

FILE_DESCRIPTION(
/* description */ (''),
/* implementation_level */ '2;1');

FILE_NAME(
/* name */ 
'C:\\Users\\louis.petitjean\\Desktop\\GSE-1201-000-000-A Thruster Bala
nce\\Fixed structure subsystem\\GSE-1201-041-001-A (Attach M6 connecti
on plate).stp',
/* time_stamp */ '2019-10-25T15:09:03+02:00',
/* author */ ('louis.petitjean'),
/* organization */ ('EXOTRAIL'),
/* preprocessor_version */ 'ST-DEVELOPER v18',
/* originating_system */ 'Autodesk Inventor 2020',
/* authorisation */ '');

FILE_SCHEMA (('AUTOMOTIVE_DESIGN { 1 0 10303 214 3 1 1 }'));
ENDSEC;

DATA;
#10=MECHANICAL_DESIGN_GEOMETRIC_PRESENTATION_REPRESENTATION('',(#13),#385);
#11=SHAPE_REPRESENTATION_RELATIONSHIP('SRR','None',#392,#12);
#12=ADVANCED_BREP_SHAPE_REPRESENTATION('',(#14),#384);
#13=STYLED_ITEM('',(#401),#14);
#14=MANIFOLD_SOLID_BREP('Solide1',#219);
#15=FACE_BOUND('',#44,.T.);
#16=FACE_BOUND('',#45,.T.);
#17=FACE_BOUND('',#48,.T.);
#18=FACE_BOUND('',#49,.T.);
#19=FACE_BOUND('',#52,.T.);
#20=FACE_BOUND('',#53,.T.);
#21=FACE_BOUND('',#55,.T.);
#22=FACE_BOUND('',#56,.T.);
#23=PLANE('',#255);
#24=PLANE('',#256);
#25=PLANE('',#257);
#26=PLANE('',#258);
#27=PLANE('',#259);
#28=PLANE('',#260);
#29=FACE_OUTER_BOUND('',#39,.T.);
#30=FACE_OUTER_BOUND('',#40,.T.);
#31=FACE_OUTER_BOUND('',#41,.T.);
#32=FACE_OUTER_BOUND('',#42,.T.);
#33=FACE_OUTER_BOUND('',#43,.T.);
#34=FACE_OUTER_BOUND('',#46,.T.);
#35=FACE_OUTER_BOUND('',#47,.T.);
#36=FACE_OUTER_BOUND('',#50,.T.);
#37=FACE_OUTER_BOUND('',#51,.T.);
#38=FACE_OUTER_BOUND('',#54,.T.);
#39=EDGE_LOOP('',(#149,#150,#151,#152,#153));
#40=EDGE_LOOP('',(#154,#155,#156,#157,#158));
#41=EDGE_LOOP('',(#159,#160,#161,#162,#163));
#42=EDGE_LOOP('',(#164,#165,#166,#167,#168));
#43=EDGE_LOOP('',(#169,#170,#171,#172));
#44=EDGE_LOOP('',(#173,#174));
#45=EDGE_LOOP('',(#175,#176));
#46=EDGE_LOOP('',(#177,#178,#179,#180));
#47=EDGE_LOOP('',(#181,#182,#183,#184));
#48=EDGE_LOOP('',(#185));
#49=EDGE_LOOP('',(#186));
#50=EDGE_LOOP('',(#187,#188,#189,#190));
#51=EDGE_LOOP('',(#191,#192,#193,#194));
#52=EDGE_LOOP('',(#195));
#53=EDGE_LOOP('',(#196));
#54=EDGE_LOOP('',(#197,#198,#199,#200));
#55=EDGE_LOOP('',(#201,#202));
#56=EDGE_LOOP('',(#203,#204));
#57=LINE('',#330,#73);
#58=LINE('',#338,#74);
#59=LINE('',#346,#75);
#60=LINE('',#354,#76);
#61=LINE('',#359,#77);
#62=LINE('',#361,#78);
#63=LINE('',#363,#79);
#64=LINE('',#364,#80);
#65=LINE('',#367,#81);
#66=LINE('',#369,#82);
#67=LINE('',#370,#83);
#68=LINE('',#373,#84);
#69=LINE('',#375,#85);
#70=LINE('',#376,#86);
#71=LINE('',#378,#87);
#72=LINE('',#379,#88);
#73=VECTOR('',#269,0.7835);
#74=VECTOR('',#278,0.7835);
#75=VECTOR('',#287,3.3);
#76=VECTOR('',#296,3.3);
#77=VECTOR('',#301,10.);
#78=VECTOR('',#302,10.);
#79=VECTOR('',#303,10.);
#80=VECTOR('',#304,10.);
#81=VECTOR('',#307,10.);
#82=VECTOR('',#308,10.);
#83=VECTOR('',#309,10.);
#84=VECTOR('',#312,10.);
#85=VECTOR('',#313,10.);
#86=VECTOR('',#314,10.);
#87=VECTOR('',#317,10.);
#88=VECTOR('',#318,10.);
#89=CIRCLE('',#240,0.7835);
#90=CIRCLE('',#241,0.7835);
#91=CIRCLE('',#242,0.7835);
#92=CIRCLE('',#244,0.7835);
#93=CIRCLE('',#245,0.7835);
#94=CIRCLE('',#246,0.7835);
#95=CIRCLE('',#248,3.3);
#96=CIRCLE('',#249,3.3);
#97=CIRCLE('',#250,3.3);
#98=CIRCLE('',#252,3.3);
#99=CIRCLE('',#253,3.3);
#100=CIRCLE('',#254,3.3);
#101=VERTEX_POINT('',#325);
#102=VERTEX_POINT('',#326);
#103=VERTEX_POINT('',#329);
#104=VERTEX_POINT('',#333);
#105=VERTEX_POINT('',#334);
#106=VERTEX_POINT('',#337);
#107=VERTEX_POINT('',#341);
#108=VERTEX_POINT('',#342);
#109=VERTEX_POINT('',#345);
#110=VERTEX_POINT('',#349);
#111=VERTEX_POINT('',#350);
#112=VERTEX_POINT('',#353);
#113=VERTEX_POINT('',#357);
#114=VERTEX_POINT('',#358);
#115=VERTEX_POINT('',#360);
#116=VERTEX_POINT('',#362);
#117=VERTEX_POINT('',#366);
#118=VERTEX_POINT('',#368);
#119=VERTEX_POINT('',#372);
#120=VERTEX_POINT('',#374);
#121=EDGE_CURVE('',#101,#102,#89,.T.);
#122=EDGE_CURVE('',#102,#101,#90,.T.);
#123=EDGE_CURVE('',#102,#103,#57,.T.);
#124=EDGE_CURVE('',#103,#103,#91,.T.);
#125=EDGE_CURVE('',#104,#105,#92,.T.);
#126=EDGE_CURVE('',#105,#104,#93,.T.);
#127=EDGE_CURVE('',#105,#106,#58,.T.);
#128=EDGE_CURVE('',#106,#106,#94,.T.);
#129=EDGE_CURVE('',#107,#108,#95,.T.);
#130=EDGE_CURVE('',#108,#107,#96,.T.);
#131=EDGE_CURVE('',#108,#109,#59,.T.);
#132=EDGE_CURVE('',#109,#109,#97,.T.);
#133=EDGE_CURVE('',#110,#111,#98,.T.);
#134=EDGE_CURVE('',#111,#110,#99,.T.);
#135=EDGE_CURVE('',#111,#112,#60,.T.);
#136=EDGE_CURVE('',#112,#112,#100,.T.);
#137=EDGE_CURVE('',#113,#114,#61,.T.);
#138=EDGE_CURVE('',#114,#115,#62,.T.);
#139=EDGE_CURVE('',#116,#115,#63,.T.);
#140=EDGE_CURVE('',#113,#116,#64,.T.);
#141=EDGE_CURVE('',#117,#113,#65,.T.);
#142=EDGE_CURVE('',#118,#116,#66,.T.);
#143=EDGE_CURVE('',#117,#118,#67,.T.);
#144=EDGE_CURVE('',#119,#117,#68,.T.);
#145=EDGE_CURVE('',#120,#118,#69,.T.);
#146=EDGE_CURVE('',#119,#120,#70,.T.);
#147=EDGE_CURVE('',#114,#119,#71,.T.);
#148=EDGE_CURVE('',#115,#120,#72,.T.);
#149=ORIENTED_EDGE('',*,*,#121,.F.);
#150=ORIENTED_EDGE('',*,*,#122,.F.);
#151=ORIENTED_EDGE('',*,*,#123,.T.);
#152=ORIENTED_EDGE('',*,*,#124,.F.);
#153=ORIENTED_EDGE('',*,*,#123,.F.);
#154=ORIENTED_EDGE('',*,*,#125,.F.);
#155=ORIENTED_EDGE('',*,*,#126,.F.);
#156=ORIENTED_EDGE('',*,*,#127,.T.);
#157=ORIENTED_EDGE('',*,*,#128,.F.);
#158=ORIENTED_EDGE('',*,*,#127,.F.);
#159=ORIENTED_EDGE('',*,*,#129,.F.);
#160=ORIENTED_EDGE('',*,*,#130,.F.);
#161=ORIENTED_EDGE('',*,*,#131,.T.);
#162=ORIENTED_EDGE('',*,*,#132,.F.);
#163=ORIENTED_EDGE('',*,*,#131,.F.);
#164=ORIENTED_EDGE('',*,*,#133,.F.);
#165=ORIENTED_EDGE('',*,*,#134,.F.);
#166=ORIENTED_EDGE('',*,*,#135,.T.);
#167=ORIENTED_EDGE('',*,*,#136,.F.);
#168=ORIENTED_EDGE('',*,*,#135,.F.);
#169=ORIENTED_EDGE('',*,*,#137,.T.);
#170=ORIENTED_EDGE('',*,*,#138,.T.);
#171=ORIENTED_EDGE('',*,*,#139,.F.);
#172=ORIENTED_EDGE('',*,*,#140,.F.);
#173=ORIENTED_EDGE('',*,*,#121,.T.);
#174=ORIENTED_EDGE('',*,*,#122,.T.);
#175=ORIENTED_EDGE('',*,*,#125,.T.);
#176=ORIENTED_EDGE('',*,*,#126,.T.);
#177=ORIENTED_EDGE('',*,*,#141,.T.);
#178=ORIENTED_EDGE('',*,*,#140,.T.);
#179=ORIENTED_EDGE('',*,*,#142,.F.);
#180=ORIENTED_EDGE('',*,*,#143,.F.);
#181=ORIENTED_EDGE('',*,*,#144,.T.);
#182=ORIENTED_EDGE('',*,*,#143,.T.);
#183=ORIENTED_EDGE('',*,*,#145,.F.);
#184=ORIENTED_EDGE('',*,*,#146,.F.);
#185=ORIENTED_EDGE('',*,*,#124,.T.);
#186=ORIENTED_EDGE('',*,*,#128,.T.);
#187=ORIENTED_EDGE('',*,*,#147,.T.);
#188=ORIENTED_EDGE('',*,*,#146,.T.);
#189=ORIENTED_EDGE('',*,*,#148,.F.);
#190=ORIENTED_EDGE('',*,*,#138,.F.);
#191=ORIENTED_EDGE('',*,*,#148,.T.);
#192=ORIENTED_EDGE('',*,*,#145,.T.);
#193=ORIENTED_EDGE('',*,*,#142,.T.);
#194=ORIENTED_EDGE('',*,*,#139,.T.);
#195=ORIENTED_EDGE('',*,*,#132,.T.);
#196=ORIENTED_EDGE('',*,*,#136,.T.);
#197=ORIENTED_EDGE('',*,*,#147,.F.);
#198=ORIENTED_EDGE('',*,*,#137,.F.);
#199=ORIENTED_EDGE('',*,*,#141,.F.);
#200=ORIENTED_EDGE('',*,*,#144,.F.);
#201=ORIENTED_EDGE('',*,*,#129,.T.);
#202=ORIENTED_EDGE('',*,*,#130,.T.);
#203=ORIENTED_EDGE('',*,*,#133,.T.);
#204=ORIENTED_EDGE('',*,*,#134,.T.);
#205=CYLINDRICAL_SURFACE('',#239,0.7835);
#206=CYLINDRICAL_SURFACE('',#243,0.7835);
#207=CYLINDRICAL_SURFACE('',#247,3.3);
#208=CYLINDRICAL_SURFACE('',#251,3.3);
#209=ADVANCED_FACE('',(#29),#205,.F.);
#210=ADVANCED_FACE('',(#30),#206,.F.);
#211=ADVANCED_FACE('',(#31),#207,.F.);
#212=ADVANCED_FACE('',(#32),#208,.F.);
#213=ADVANCED_FACE('',(#33,#15,#16),#23,.T.);
#214=ADVANCED_FACE('',(#34),#24,.T.);
#215=ADVANCED_FACE('',(#35,#17,#18),#25,.T.);
#216=ADVANCED_FACE('',(#36),#26,.T.);
#217=ADVANCED_FACE('',(#37,#19,#20),#27,.T.);
#218=ADVANCED_FACE('',(#38,#21,#22),#28,.F.);
#219=CLOSED_SHELL('',(#209,#210,#211,#212,#213,#214,#215,#216,#217,#218));
#220=DERIVED_UNIT_ELEMENT(#222,1.);
#221=DERIVED_UNIT_ELEMENT(#387,3.);
#222=(
MASS_UNIT()
NAMED_UNIT(*)
SI_UNIT($,.GRAM.)
);
#223=DERIVED_UNIT((#220,#221));
#224=MEASURE_REPRESENTATION_ITEM('density measure',
POSITIVE_RATIO_MEASURE(2.7),#223);
#225=PROPERTY_DEFINITION_REPRESENTATION(#230,#227);
#226=PROPERTY_DEFINITION_REPRESENTATION(#231,#228);
#227=REPRESENTATION('material name',(#229),#384);
#228=REPRESENTATION('density',(#224),#384);
#229=DESCRIPTIVE_REPRESENTATION_ITEM('Aluminium 6061','Aluminium 6061');
#230=PROPERTY_DEFINITION('material property','material name',#394);
#231=PROPERTY_DEFINITION('material property','density of part',#394);
#232=DATE_TIME_ROLE('creation_date');
#233=APPLIED_DATE_AND_TIME_ASSIGNMENT(#234,#232,(#394));
#234=DATE_AND_TIME(#235,#236);
#235=CALENDAR_DATE(2019,25,10);
#236=LOCAL_TIME(7,47,42.,#237);
#237=COORDINATED_UNIVERSAL_TIME_OFFSET(0,0,.BEHIND.);
#238=AXIS2_PLACEMENT_3D('placement',#323,#261,#262);
#239=AXIS2_PLACEMENT_3D('',#324,#263,#264);
#240=AXIS2_PLACEMENT_3D('',#327,#265,#266);
#241=AXIS2_PLACEMENT_3D('',#328,#267,#268);
#242=AXIS2_PLACEMENT_3D('',#331,#270,#271);
#243=AXIS2_PLACEMENT_3D('',#332,#272,#273);
#244=AXIS2_PLACEMENT_3D('',#335,#274,#275);
#245=AXIS2_PLACEMENT_3D('',#336,#276,#277);
#246=AXIS2_PLACEMENT_3D('',#339,#279,#280);
#247=AXIS2_PLACEMENT_3D('',#340,#281,#282);
#248=AXIS2_PLACEMENT_3D('',#343,#283,#284);
#249=AXIS2_PLACEMENT_3D('',#344,#285,#286);
#250=AXIS2_PLACEMENT_3D('',#347,#288,#289);
#251=AXIS2_PLACEMENT_3D('',#348,#290,#291);
#252=AXIS2_PLACEMENT_3D('',#351,#292,#293);
#253=AXIS2_PLACEMENT_3D('',#352,#294,#295);
#254=AXIS2_PLACEMENT_3D('',#355,#297,#298);
#255=AXIS2_PLACEMENT_3D('',#356,#299,#300);
#256=AXIS2_PLACEMENT_3D('',#365,#305,#306);
#257=AXIS2_PLACEMENT_3D('',#371,#310,#311);
#258=AXIS2_PLACEMENT_3D('',#377,#315,#316);
#259=AXIS2_PLACEMENT_3D('',#380,#319,#320);
#260=AXIS2_PLACEMENT_3D('',#381,#321,#322);
#261=DIRECTION('axis',(0.,0.,1.));
#262=DIRECTION('refdir',(1.,0.,0.));
#263=DIRECTION('center_axis',(0.,1.97372982155583E-16,-1.));
#264=DIRECTION('ref_axis',(-1.,0.,0.));
#265=DIRECTION('center_axis',(0.,-1.97372982155583E-16,1.));
#266=DIRECTION('ref_axis',(-1.,0.,0.));
#267=DIRECTION('center_axis',(0.,-1.97372982155583E-16,1.));
#268=DIRECTION('ref_axis',(-1.,0.,0.));
#269=DIRECTION('',(0.,-1.97372982155583E-16,1.));
#270=DIRECTION('center_axis',(0.,-1.84326200612783E-33,-1.));
#271=DIRECTION('ref_axis',(-1.,0.,0.));
#272=DIRECTION('center_axis',(0.,1.97372982155583E-16,-1.));
#273=DIRECTION('ref_axis',(-1.,0.,0.));
#274=DIRECTION('center_axis',(0.,-1.97372982155583E-16,1.));
#275=DIRECTION('ref_axis',(-1.,0.,0.));
#276=DIRECTION('center_axis',(0.,-1.97372982155583E-16,1.));
#277=DIRECTION('ref_axis',(-1.,0.,0.));
#278=DIRECTION('',(0.,-1.97372982155583E-16,1.));
#279=DIRECTION('center_axis',(0.,-1.84326200612783E-33,-1.));
#280=DIRECTION('ref_axis',(-1.,0.,0.));
#281=DIRECTION('center_axis',(-1.,0.,0.));
#282=DIRECTION('ref_axis',(0.,0.,1.));
#283=DIRECTION('center_axis',(1.,0.,0.));
#284=DIRECTION('ref_axis',(0.,0.,1.));
#285=DIRECTION('center_axis',(1.,0.,0.));
#286=DIRECTION('ref_axis',(0.,0.,1.));
#287=DIRECTION('',(1.,0.,0.));
#288=DIRECTION('center_axis',(-1.,0.,0.));
#289=DIRECTION('ref_axis',(0.,0.,1.));
#290=DIRECTION('center_axis',(-1.,0.,0.));
#291=DIRECTION('ref_axis',(0.,0.,1.));
#292=DIRECTION('center_axis',(1.,0.,0.));
#293=DIRECTION('ref_axis',(0.,0.,1.));
#294=DIRECTION('center_axis',(1.,0.,0.));
#295=DIRECTION('ref_axis',(0.,0.,1.));
#296=DIRECTION('',(1.,0.,0.));
#297=DIRECTION('center_axis',(-1.,0.,0.));
#298=DIRECTION('ref_axis',(0.,0.,1.));
#299=DIRECTION('center_axis',(0.,1.97372982155583E-16,-1.));
#300=DIRECTION('ref_axis',(0.,1.,1.97372982155583E-16));
#301=DIRECTION('',(0.,1.,1.97372982155583E-16));
#302=DIRECTION('',(1.,0.,0.));
#303=DIRECTION('',(0.,1.,1.97372982155583E-16));
#304=DIRECTION('',(1.,0.,0.));
#305=DIRECTION('center_axis',(0.,-1.,-1.83697019872103E-16));
#306=DIRECTION('ref_axis',(0.,1.83697019872103E-16,-1.));
#307=DIRECTION('',(0.,1.83697019872103E-16,-1.));
#308=DIRECTION('',(0.,1.83697019872103E-16,-1.));
#309=DIRECTION('',(1.,0.,0.));
#310=DIRECTION('center_axis',(0.,1.84326200612783E-33,1.));
#311=DIRECTION('ref_axis',(0.,-1.,1.84326200612783E-33));
#312=DIRECTION('',(0.,-1.,1.84326200612783E-33));
#313=DIRECTION('',(0.,-1.,1.84326200612783E-33));
#314=DIRECTION('',(1.,0.,0.));
#315=DIRECTION('center_axis',(0.,1.,0.));
#316=DIRECTION('ref_axis',(0.,0.,1.));
#317=DIRECTION('',(0.,0.,1.));
#318=DIRECTION('',(0.,0.,1.));
#319=DIRECTION('center_axis',(1.,0.,0.));
#320=DIRECTION('ref_axis',(0.,0.,-1.));
#321=DIRECTION('center_axis',(1.,0.,0.));
#322=DIRECTION('ref_axis',(0.,0.,-1.));
#323=CARTESIAN_POINT('',(0.,0.,0.));
#324=CARTESIAN_POINT('Origin',(4.,41.,27.0960651105244));
#325=CARTESIAN_POINT('',(3.2165,41.,-25.));
#326=CARTESIAN_POINT('',(4.7835,41.,-25.));
#327=CARTESIAN_POINT('Origin',(4.,41.,-25.));
#328=CARTESIAN_POINT('Origin',(4.,41.,-25.));
#329=CARTESIAN_POINT('',(4.7835,41.,1.76862974152489E-49));
#330=CARTESIAN_POINT('',(4.7835,41.,27.0960651105244));
#331=CARTESIAN_POINT('Origin',(4.,41.,0.));
#332=CARTESIAN_POINT('Origin',(4.,4.,27.0960651105244));
#333=CARTESIAN_POINT('',(3.2165,4.00000000000001,-25.));
#334=CARTESIAN_POINT('',(4.7835,4.00000000000001,-25.));
#335=CARTESIAN_POINT('Origin',(4.,4.00000000000001,-25.));
#336=CARTESIAN_POINT('Origin',(4.,4.00000000000001,-25.));
#337=CARTESIAN_POINT('',(4.7835,4.,-8.88178419700125E-15));
#338=CARTESIAN_POINT('',(4.7835,4.,27.0960651105244));
#339=CARTESIAN_POINT('Origin',(4.,4.,-8.88178419700125E-15));
#340=CARTESIAN_POINT('Origin',(52.0960651105244,10.,-7.));
#341=CARTESIAN_POINT('',(0.,10.,-3.7));
#342=CARTESIAN_POINT('',(0.,10.,-10.3));
#343=CARTESIAN_POINT('Origin',(0.,10.,-7.));
#344=CARTESIAN_POINT('Origin',(0.,10.,-7.));
#345=CARTESIAN_POINT('',(8.,10.,-10.3));
#346=CARTESIAN_POINT('',(52.0960651105244,10.,-10.3));
#347=CARTESIAN_POINT('Origin',(8.,10.,-7.));
#348=CARTESIAN_POINT('Origin',(52.0960651105244,35.,-7.));
#349=CARTESIAN_POINT('',(0.,35.,-3.7));
#350=CARTESIAN_POINT('',(0.,35.,-10.3));
#351=CARTESIAN_POINT('Origin',(0.,35.,-7.));
#352=CARTESIAN_POINT('Origin',(0.,35.,-7.));
#353=CARTESIAN_POINT('',(8.,35.,-10.3));
#354=CARTESIAN_POINT('',(52.0960651105244,35.,-10.3));
#355=CARTESIAN_POINT('Origin',(8.,35.,-7.));
#356=CARTESIAN_POINT('Origin',(0.,4.59242549680257E-15,-25.));
#357=CARTESIAN_POINT('',(0.,4.59242549680257E-15,-25.));
#358=CARTESIAN_POINT('',(0.,45.,-25.));
#359=CARTESIAN_POINT('',(0.,8.88178419700125E-15,-25.));
#360=CARTESIAN_POINT('',(8.,45.,-25.));
#361=CARTESIAN_POINT('',(0.,45.,-25.));
#362=CARTESIAN_POINT('',(8.,8.88178419700125E-15,-25.));
#363=CARTESIAN_POINT('',(8.,8.88178419700125E-15,-25.));
#364=CARTESIAN_POINT('',(0.,4.59242549680257E-15,-25.));
#365=CARTESIAN_POINT('Origin',(0.,0.,0.));
#366=CARTESIAN_POINT('',(0.,0.,0.));
#367=CARTESIAN_POINT('',(0.,0.,0.));
#368=CARTESIAN_POINT('',(8.,0.,0.));
#369=CARTESIAN_POINT('',(8.,0.,0.));
#370=CARTESIAN_POINT('',(0.,0.,0.));
#371=CARTESIAN_POINT('Origin',(0.,45.,-8.29467902757522E-32));
#372=CARTESIAN_POINT('',(0.,45.,-8.29467902757522E-32));
#373=CARTESIAN_POINT('',(0.,45.,-8.29467902757522E-32));
#374=CARTESIAN_POINT('',(8.,45.,0.));
#375=CARTESIAN_POINT('',(8.,45.,-8.29467902757522E-32));
#376=CARTESIAN_POINT('',(0.,45.,-8.29467902757522E-32));
#377=CARTESIAN_POINT('Origin',(0.,45.,-25.));
#378=CARTESIAN_POINT('',(0.,45.,-25.));
#379=CARTESIAN_POINT('',(8.,45.,-25.));
#380=CARTESIAN_POINT('Origin',(8.,22.5,-12.5));
#381=CARTESIAN_POINT('Origin',(0.,22.5,-12.5));
#382=UNCERTAINTY_MEASURE_WITH_UNIT(LENGTH_MEASURE(0.01),#386,
'DISTANCE_ACCURACY_VALUE',
'Maximum model space distance between geometric entities at asserted c
onnectivities');
#383=UNCERTAINTY_MEASURE_WITH_UNIT(LENGTH_MEASURE(0.01),#386,
'DISTANCE_ACCURACY_VALUE',
'Maximum model space distance between geometric entities at asserted c
onnectivities');
#384=(
GEOMETRIC_REPRESENTATION_CONTEXT(3)
GLOBAL_UNCERTAINTY_ASSIGNED_CONTEXT((#382))
GLOBAL_UNIT_ASSIGNED_CONTEXT((#386,#388,#389))
REPRESENTATION_CONTEXT('','3D')
);
#385=(
GEOMETRIC_REPRESENTATION_CONTEXT(3)
GLOBAL_UNCERTAINTY_ASSIGNED_CONTEXT((#383))
GLOBAL_UNIT_ASSIGNED_CONTEXT((#386,#388,#389))
REPRESENTATION_CONTEXT('','3D')
);
#386=(
LENGTH_UNIT()
NAMED_UNIT(*)
SI_UNIT(.MILLI.,.METRE.)
);
#387=(
LENGTH_UNIT()
NAMED_UNIT(*)
SI_UNIT(.CENTI.,.METRE.)
);
#388=(
NAMED_UNIT(*)
PLANE_ANGLE_UNIT()
SI_UNIT($,.RADIAN.)
);
#389=(
NAMED_UNIT(*)
SI_UNIT($,.STERADIAN.)
SOLID_ANGLE_UNIT()
);
#390=SHAPE_DEFINITION_REPRESENTATION(#391,#392);
#391=PRODUCT_DEFINITION_SHAPE('',$,#394);
#392=SHAPE_REPRESENTATION('',(#238),#384);
#393=PRODUCT_DEFINITION_CONTEXT('part definition',#398,'design');
#394=PRODUCT_DEFINITION('GSE-1201-041-001-A',
'GSE-1201-041-001-A (Attach M6 connection plate)',#395,#393);
#395=PRODUCT_DEFINITION_FORMATION('',$,#400);
#396=PRODUCT_RELATED_PRODUCT_CATEGORY(
'GSE-1201-041-001-A (Attach M6 connection plate)',
'GSE-1201-041-001-A (Attach M6 connection plate)',(#400));
#397=APPLICATION_PROTOCOL_DEFINITION('international standard',
'automotive_design',2009,#398);
#398=APPLICATION_CONTEXT(
'Core Data for Automotive Mechanical Design Process');
#399=PRODUCT_CONTEXT('part definition',#398,'mechanical');
#400=PRODUCT('GSE-1201-041-001-A',
'GSE-1201-041-001-A (Attach M6 connection plate)',$,(#399));
#401=PRESENTATION_STYLE_ASSIGNMENT((#402));
#402=SURFACE_STYLE_USAGE(.BOTH.,#405);
#403=SURFACE_STYLE_RENDERING_WITH_PROPERTIES($,#409,(#404));
#404=SURFACE_STYLE_TRANSPARENT(0.);
#405=SURFACE_SIDE_STYLE('',(#406,#403));
#406=SURFACE_STYLE_FILL_AREA(#407);
#407=FILL_AREA_STYLE('',(#408));
#408=FILL_AREA_STYLE_COLOUR('',#409);
#409=COLOUR_RGB('',0.996078431372549,0.996078431372549,1.);
ENDSEC;
END-ISO-10303-21;
