ISO-10303-21;
HEADER;
FILE_DESCRIPTION (( 'STEP AP214' ),
    '1' );
FILE_NAME ('Tube 20x1.5.STEP',
    '2019-10-20T13:07:58',
    ( 'Olivier' ),
    ( 'Microsoft' ),
    'SwSTEP 2.0',
    'SolidWorks 2010',
    '' );
FILE_SCHEMA (( 'AUTOMOTIVE_DESIGN' ));
ENDSEC;

DATA;
#1 = ADVANCED_BREP_SHAPE_REPRESENTATION ( 'Tube 20x1.5', ( #85, #91 ), #48 ) ;
#2 = UNCERTAINTY_MEASURE_WITH_UNIT (LENGTH_MEASURE( 1.000000000000000100E-005 ), #207, 'distance_accuracy_value', 'NONE');
#3 = EDGE_LOOP ( 'NONE', ( #30, #25, #29, #31 ) ) ;
#4 = EDGE_LOOP ( 'NONE', ( #16, #67 ) ) ;
#5 = EDGE_LOOP ( 'NONE', ( #66, #14 ) ) ;
#6 = EDGE_LOOP ( 'NONE', ( #27, #10, #21, #28 ) ) ;
#7 = FACE_OUTER_BOUND ( 'NONE', #5, .T. ) ;
#8 = FACE_OUTER_BOUND ( 'NONE', #70, .T. ) ;
#9 = EDGE_LOOP ( 'NONE', ( #20, #73, #15, #19 ) ) ;
#10 = ORIENTED_EDGE ( 'NONE', *, *, #116, .T. ) ;
#11 = FACE_OUTER_BOUND ( 'NONE', #6, .T. ) ;
#12 = PRODUCT ( 'Tube 20x1.5', 'Tube 20x1.5', '', ( #195 ) ) ;
#13 = ORIENTED_EDGE ( 'NONE', *, *, #109, .T. ) ;
#14 = ORIENTED_EDGE ( 'NONE', *, *, #107, .F. ) ;
#15 = ORIENTED_EDGE ( 'NONE', *, *, #107, .T. ) ;
#16 = ORIENTED_EDGE ( 'NONE', *, *, #110, .T. ) ;
#17 = ORIENTED_EDGE ( 'NONE', *, *, #108, .F. ) ;
#18 = ORIENTED_EDGE ( 'NONE', *, *, #116, .F. ) ;
#19 = ORIENTED_EDGE ( 'NONE', *, *, #114, .F. ) ;
#20 = ORIENTED_EDGE ( 'NONE', *, *, #113, .F. ) ;
#21 = ORIENTED_EDGE ( 'NONE', *, *, #108, .T. ) ;
#22 = ORIENTED_EDGE ( 'NONE', *, *, #110, .F. ) ;
#23 = ORIENTED_EDGE ( 'NONE', *, *, #111, .T. ) ;
#24 = ORIENTED_EDGE ( 'NONE', *, *, #113, .T. ) ;
#25 = ORIENTED_EDGE ( 'NONE', *, *, #115, .F. ) ;
#26 = ORIENTED_EDGE ( 'NONE', *, *, #111, .F. ) ;
#27 = ORIENTED_EDGE ( 'NONE', *, *, #109, .F. ) ;
#28 = ORIENTED_EDGE ( 'NONE', *, *, #117, .F. ) ;
#29 = ORIENTED_EDGE ( 'NONE', *, *, #114, .T. ) ;
#30 = ORIENTED_EDGE ( 'NONE', *, *, #112, .F. ) ;
#31 = ORIENTED_EDGE ( 'NONE', *, *, #118, .T. ) ;
#32 = CYLINDRICAL_SURFACE ( 'NONE', #102, 8.500000000000000000 ) ;
#33 = VECTOR ( 'NONE', #185, 1000.000000000000000 ) ;
#34 =( GEOMETRIC_REPRESENTATION_CONTEXT ( 3 ) GLOBAL_UNCERTAINTY_ASSIGNED_CONTEXT ( ( #83 ) ) GLOBAL_UNIT_ASSIGNED_CONTEXT ( ( #152, #199, #197 ) ) REPRESENTATION_CONTEXT ( 'NONE', 'WORKASPACE' ) );
#35 = VECTOR ( 'NONE', #179, 1000.000000000000000 ) ;
#36 = STYLED_ITEM ( 'NONE', ( #39 ), #85 ) ;
#37 = FACE_BOUND ( 'NONE', #71, .T. ) ;
#38 = SHAPE_DEFINITION_REPRESENTATION ( #87, #1 ) ;
#39 = PRESENTATION_STYLE_ASSIGNMENT (( #156 ) ) ;
#40 =( GEOMETRIC_REPRESENTATION_CONTEXT ( 3 ) GLOBAL_UNCERTAINTY_ASSIGNED_CONTEXT ( ( #2 ) ) GLOBAL_UNIT_ASSIGNED_CONTEXT ( ( #207, #206, #205 ) ) REPRESENTATION_CONTEXT ( 'NONE', 'WORKASPACE' ) );
#41 = CYLINDRICAL_SURFACE ( 'NONE', #100, 10.00000000000000000 ) ;
#42 = SURFACE_STYLE_FILL_AREA ( #154 ) ;
#43 = FACE_OUTER_BOUND ( 'NONE', #3, .T. ) ;
#44 = STYLED_ITEM ( 'NONE', ( #45 ), #1 ) ;
#45 = PRESENTATION_STYLE_ASSIGNMENT (( #208 ) ) ;
#46 = SURFACE_STYLE_FILL_AREA ( #211 ) ;
#47 = COLOUR_RGB ( '',0.7921568627450980000, 0.8196078431372548800, 0.9333333333333333500 ) ;
#48 =( GEOMETRIC_REPRESENTATION_CONTEXT ( 3 ) GLOBAL_UNCERTAINTY_ASSIGNED_CONTEXT ( ( #84 ) ) GLOBAL_UNIT_ASSIGNED_CONTEXT ( ( #170, #214, #213 ) ) REPRESENTATION_CONTEXT ( 'NONE', 'WORKASPACE' ) );
#49 = CIRCLE ( 'NONE', #94, 10.00000000000000000 ) ;
#50 = CIRCLE ( 'NONE', #95, 8.500000000000000000 ) ;
#51 = CIRCLE ( 'NONE', #120, 8.500000000000000000 ) ;
#52 = CYLINDRICAL_SURFACE ( 'NONE', #103, 10.00000000000000000 ) ;
#53 = CIRCLE ( 'NONE', #97, 10.00000000000000000 ) ;
#54 = CYLINDRICAL_SURFACE ( 'NONE', #105, 8.500000000000000000 ) ;
#55 = CIRCLE ( 'NONE', #96, 10.00000000000000000 ) ;
#56 = LINE ( 'NONE', #150, #35 ) ;
#57 = FACE_OUTER_BOUND ( 'NONE', #75, .T. ) ;
#58 = COLOUR_RGB ( '',0.7921568627450980000, 0.8196078431372548800, 0.9333333333333333500 ) ;
#59 = FACE_OUTER_BOUND ( 'NONE', #9, .T. ) ;
#60 = CIRCLE ( 'NONE', #119, 8.500000000000000000 ) ;
#61 = FACE_BOUND ( 'NONE', #4, .T. ) ;
#62 = CIRCLE ( 'NONE', #98, 8.500000000000000000 ) ;
#63 = VECTOR ( 'NONE', #183, 1000.000000000000000 ) ;
#64 = LINE ( 'NONE', #184, #63 ) ;
#65 = VECTOR ( 'NONE', #161, 1000.000000000000000 ) ;
#66 = ORIENTED_EDGE ( 'NONE', *, *, #118, .F. ) ;
#67 = ORIENTED_EDGE ( 'NONE', *, *, #117, .T. ) ;
#68 = CIRCLE ( 'NONE', #121, 10.00000000000000000 ) ;
#69 = LINE ( 'NONE', #200, #33 ) ;
#70 = EDGE_LOOP ( 'NONE', ( #23, #13, #22, #17 ) ) ;
#71 = EDGE_LOOP ( 'NONE', ( #26, #18 ) ) ;
#72 = CLOSED_SHELL ( 'NONE', ( #80, #79, #81, #78, #82, #77 ) ) ;
#73 = ORIENTED_EDGE ( 'NONE', *, *, #112, .T. ) ;
#74 = ORIENTED_EDGE ( 'NONE', *, *, #115, .T. ) ;
#75 = EDGE_LOOP ( 'NONE', ( #74, #24 ) ) ;
#76 = LINE ( 'NONE', #191, #65 ) ;
#77 = ADVANCED_FACE ( 'NONE', ( #11 ), #54, .F. ) ;
#78 = ADVANCED_FACE ( 'NONE', ( #7, #61 ), #144, .F. ) ;
#79 = ADVANCED_FACE ( 'NONE', ( #59 ), #52, .T. ) ;
#80 = ADVANCED_FACE ( 'NONE', ( #8 ), #32, .F. ) ;
#81 = ADVANCED_FACE ( 'NONE', ( #57, #37 ), #149, .T. ) ;
#82 = ADVANCED_FACE ( 'NONE', ( #43 ), #41, .T. ) ;
#83 = UNCERTAINTY_MEASURE_WITH_UNIT (LENGTH_MEASURE( 1.000000000000000100E-005 ), #152, 'distance_accuracy_value', 'NONE');
#84 = UNCERTAINTY_MEASURE_WITH_UNIT (LENGTH_MEASURE( 1.000000000000000100E-005 ), #170, 'distance_accuracy_value', 'NONE');
#85 = MANIFOLD_SOLID_BREP ( 'Boss.-Extru.1', #72 ) ;
#86 = PRODUCT_DEFINITION_CONTEXT ( 'detailed design', #194, 'design' ) ;
#87 = PRODUCT_DEFINITION_SHAPE ( 'NONE', 'NONE',  #90 ) ;
#88 = PRODUCT_RELATED_PRODUCT_CATEGORY ( 'part', '', ( #12 ) ) ;
#89 = PRODUCT_DEFINITION_FORMATION_WITH_SPECIFIED_SOURCE ( 'ANY', '', #12, .NOT_KNOWN. ) ;
#90 = PRODUCT_DEFINITION ( 'UNKNOWN', '', #89, #86 ) ;
#91 = AXIS2_PLACEMENT_3D ( 'NONE', #203, #202, #201 ) ;
#92 = PRESENTATION_LAYER_ASSIGNMENT (  '', '', ( #44 ) ) ;
#93 = MECHANICAL_DESIGN_GEOMETRIC_PRESENTATION_REPRESENTATION (  '', ( #44 ), #40 ) ;
#94 = AXIS2_PLACEMENT_3D ( 'NONE', #174, #165, #164 ) ;
#95 = AXIS2_PLACEMENT_3D ( 'NONE', #177, #169, #168 ) ;
#96 = AXIS2_PLACEMENT_3D ( 'NONE', #186, #182, #181 ) ;
#97 = AXIS2_PLACEMENT_3D ( 'NONE', #178, #176, #175 ) ;
#98 = AXIS2_PLACEMENT_3D ( 'NONE', #190, #163, #187 ) ;
#99 = MECHANICAL_DESIGN_GEOMETRIC_PRESENTATION_REPRESENTATION (  '', ( #36 ), #34 ) ;
#100 = AXIS2_PLACEMENT_3D ( 'NONE', #153, #145, #129 ) ;
#101 = AXIS2_PLACEMENT_3D ( 'NONE', #148, #131, #151 ) ;
#102 = AXIS2_PLACEMENT_3D ( 'NONE', #138, #133, #139 ) ;
#103 = AXIS2_PLACEMENT_3D ( 'NONE', #140, #137, #135 ) ;
#104 = AXIS2_PLACEMENT_3D ( 'NONE', #134, #143, #142 ) ;
#105 = AXIS2_PLACEMENT_3D ( 'NONE', #147, #132, #146 ) ;
#106 = PRESENTATION_LAYER_ASSIGNMENT (  '', '', ( #36 ) ) ;
#107 = EDGE_CURVE ( 'NONE', #126, #130, #68, .T. ) ;
#108 = EDGE_CURVE ( 'NONE', #128, #136, #69, .T. ) ;
#109 = EDGE_CURVE ( 'NONE', #122, #127, #76, .T. ) ;
#110 = EDGE_CURVE ( 'NONE', #136, #127, #62, .T. ) ;
#111 = EDGE_CURVE ( 'NONE', #128, #122, #60, .T. ) ;
#112 = EDGE_CURVE ( 'NONE', #125, #126, #64, .T. ) ;
#113 = EDGE_CURVE ( 'NONE', #125, #123, #55, .T. ) ;
#114 = EDGE_CURVE ( 'NONE', #123, #130, #56, .T. ) ;
#115 = EDGE_CURVE ( 'NONE', #123, #125, #53, .T. ) ;
#116 = EDGE_CURVE ( 'NONE', #122, #128, #51, .T. ) ;
#117 = EDGE_CURVE ( 'NONE', #127, #136, #50, .T. ) ;
#118 = EDGE_CURVE ( 'NONE', #130, #126, #49, .T. ) ;
#119 = AXIS2_PLACEMENT_3D ( 'NONE', #162, #189, #124 ) ;
#120 = AXIS2_PLACEMENT_3D ( 'NONE', #180, #173, #172 ) ;
#121 = AXIS2_PLACEMENT_3D ( 'NONE', #188, #160, #193 ) ;
#122 = VERTEX_POINT ( 'NONE', #167 ) ;
#123 = VERTEX_POINT ( 'NONE', #166 ) ;
#124 = DIRECTION ( 'NONE',  ( 1.000000000000000000, 0.0000000000000000000, 0.0000000000000000000 ) ) ;
#125 = VERTEX_POINT ( 'NONE', #159 ) ;
#126 = VERTEX_POINT ( 'NONE', #158 ) ;
#127 = VERTEX_POINT ( 'NONE', #157 ) ;
#128 = VERTEX_POINT ( 'NONE', #210 ) ;
#129 = DIRECTION ( 'NONE',  ( -1.000000000000000000, 0.0000000000000000000, 0.0000000000000000000 ) ) ;
#130 = VERTEX_POINT ( 'NONE', #171 ) ;
#131 = DIRECTION ( 'NONE',  ( 0.0000000000000000000, 0.0000000000000000000, 1.000000000000000000 ) ) ;
#132 = DIRECTION ( 'NONE',  ( -0.0000000000000000000, -0.0000000000000000000, -1.000000000000000000 ) ) ;
#133 = DIRECTION ( 'NONE',  ( -0.0000000000000000000, -0.0000000000000000000, -1.000000000000000000 ) ) ;
#134 = CARTESIAN_POINT ( 'NONE',  ( 0.0000000000000000000, 0.0000000000000000000, 0.0000000000000000000 ) ) ;
#135 = DIRECTION ( 'NONE',  ( -1.000000000000000000, 0.0000000000000000000, 0.0000000000000000000 ) ) ;
#136 = VERTEX_POINT ( 'NONE', #204 ) ;
#137 = DIRECTION ( 'NONE',  ( -0.0000000000000000000, -0.0000000000000000000, -1.000000000000000000 ) ) ;
#138 = CARTESIAN_POINT ( 'NONE',  ( 0.0000000000000000000, 0.0000000000000000000, 465.0000000000000000 ) ) ;
#139 = DIRECTION ( 'NONE',  ( -1.000000000000000000, 0.0000000000000000000, 0.0000000000000000000 ) ) ;
#140 = CARTESIAN_POINT ( 'NONE',  ( 0.0000000000000000000, 0.0000000000000000000, 465.0000000000000000 ) ) ;
#141 = FILL_AREA_STYLE_COLOUR ( '', #58 ) ;
#142 = DIRECTION ( 'NONE',  ( 1.000000000000000000, 0.0000000000000000000, -0.0000000000000000000 ) ) ;
#143 = DIRECTION ( 'NONE',  ( 0.0000000000000000000, 0.0000000000000000000, 1.000000000000000000 ) ) ;
#144 = PLANE ( 'NONE',  #104 ) ;
#145 = DIRECTION ( 'NONE',  ( -0.0000000000000000000, -0.0000000000000000000, -1.000000000000000000 ) ) ;
#146 = DIRECTION ( 'NONE',  ( -1.000000000000000000, 0.0000000000000000000, 0.0000000000000000000 ) ) ;
#147 = CARTESIAN_POINT ( 'NONE',  ( 0.0000000000000000000, 0.0000000000000000000, 465.0000000000000000 ) ) ;
#148 = CARTESIAN_POINT ( 'NONE',  ( 0.0000000000000000000, 0.0000000000000000000, 465.0000000000000000 ) ) ;
#149 = PLANE ( 'NONE',  #101 ) ;
#150 = CARTESIAN_POINT ( 'NONE',  ( -10.00000000000000000, 0.0000000000000000000, 465.0000000000000000 ) ) ;
#151 = DIRECTION ( 'NONE',  ( 1.000000000000000000, 0.0000000000000000000, -0.0000000000000000000 ) ) ;
#152 =( LENGTH_UNIT ( ) NAMED_UNIT ( * ) SI_UNIT ( .MILLI., .METRE. ) );
#153 = CARTESIAN_POINT ( 'NONE',  ( 0.0000000000000000000, 0.0000000000000000000, 465.0000000000000000 ) ) ;
#154 = FILL_AREA_STYLE ('',( #141 ) ) ;
#155 = SURFACE_SIDE_STYLE ('',( #42 ) ) ;
#156 = SURFACE_STYLE_USAGE ( .BOTH. , #155 ) ;
#157 = CARTESIAN_POINT ( 'NONE',  ( 8.500000000000000000, 1.040949779275250100E-015, 0.0000000000000000000 ) ) ;
#158 = CARTESIAN_POINT ( 'NONE',  ( 10.00000000000000000, 1.224646799147353300E-015, 0.0000000000000000000 ) ) ;
#159 = CARTESIAN_POINT ( 'NONE',  ( 10.00000000000000000, 1.224646799147353300E-015, 465.0000000000000000 ) ) ;
#160 = DIRECTION ( 'NONE',  ( 0.0000000000000000000, 0.0000000000000000000, 1.000000000000000000 ) ) ;
#161 = DIRECTION ( 'NONE',  ( -0.0000000000000000000, -0.0000000000000000000, -1.000000000000000000 ) ) ;
#162 = CARTESIAN_POINT ( 'NONE',  ( 0.0000000000000000000, 0.0000000000000000000, 465.0000000000000000 ) ) ;
#163 = DIRECTION ( 'NONE',  ( 0.0000000000000000000, 0.0000000000000000000, 1.000000000000000000 ) ) ;
#164 = DIRECTION ( 'NONE',  ( 1.000000000000000000, 0.0000000000000000000, 0.0000000000000000000 ) ) ;
#165 = DIRECTION ( 'NONE',  ( 0.0000000000000000000, 0.0000000000000000000, 1.000000000000000000 ) ) ;
#166 = CARTESIAN_POINT ( 'NONE',  ( -10.00000000000000000, 0.0000000000000000000, 465.0000000000000000 ) ) ;
#167 = CARTESIAN_POINT ( 'NONE',  ( 8.500000000000000000, 1.040949779275250100E-015, 465.0000000000000000 ) ) ;
#168 = DIRECTION ( 'NONE',  ( 1.000000000000000000, 0.0000000000000000000, 0.0000000000000000000 ) ) ;
#169 = DIRECTION ( 'NONE',  ( 0.0000000000000000000, 0.0000000000000000000, 1.000000000000000000 ) ) ;
#170 =( LENGTH_UNIT ( ) NAMED_UNIT ( * ) SI_UNIT ( .MILLI., .METRE. ) );
#171 = CARTESIAN_POINT ( 'NONE',  ( -10.00000000000000000, 0.0000000000000000000, 0.0000000000000000000 ) ) ;
#172 = DIRECTION ( 'NONE',  ( 1.000000000000000000, 0.0000000000000000000, 0.0000000000000000000 ) ) ;
#173 = DIRECTION ( 'NONE',  ( 0.0000000000000000000, 0.0000000000000000000, 1.000000000000000000 ) ) ;
#174 = CARTESIAN_POINT ( 'NONE',  ( 0.0000000000000000000, 0.0000000000000000000, 0.0000000000000000000 ) ) ;
#175 = DIRECTION ( 'NONE',  ( 1.000000000000000000, 0.0000000000000000000, 0.0000000000000000000 ) ) ;
#176 = DIRECTION ( 'NONE',  ( 0.0000000000000000000, 0.0000000000000000000, 1.000000000000000000 ) ) ;
#177 = CARTESIAN_POINT ( 'NONE',  ( 0.0000000000000000000, 0.0000000000000000000, 0.0000000000000000000 ) ) ;
#178 = CARTESIAN_POINT ( 'NONE',  ( 0.0000000000000000000, 0.0000000000000000000, 465.0000000000000000 ) ) ;
#179 = DIRECTION ( 'NONE',  ( -0.0000000000000000000, -0.0000000000000000000, -1.000000000000000000 ) ) ;
#180 = CARTESIAN_POINT ( 'NONE',  ( 0.0000000000000000000, 0.0000000000000000000, 465.0000000000000000 ) ) ;
#181 = DIRECTION ( 'NONE',  ( 1.000000000000000000, 0.0000000000000000000, 0.0000000000000000000 ) ) ;
#182 = DIRECTION ( 'NONE',  ( 0.0000000000000000000, 0.0000000000000000000, 1.000000000000000000 ) ) ;
#183 = DIRECTION ( 'NONE',  ( -0.0000000000000000000, -0.0000000000000000000, -1.000000000000000000 ) ) ;
#184 = CARTESIAN_POINT ( 'NONE',  ( 10.00000000000000000, 1.224646799147353300E-015, 465.0000000000000000 ) ) ;
#185 = DIRECTION ( 'NONE',  ( -0.0000000000000000000, -0.0000000000000000000, -1.000000000000000000 ) ) ;
#186 = CARTESIAN_POINT ( 'NONE',  ( 0.0000000000000000000, 0.0000000000000000000, 465.0000000000000000 ) ) ;
#187 = DIRECTION ( 'NONE',  ( 1.000000000000000000, 0.0000000000000000000, 0.0000000000000000000 ) ) ;
#188 = CARTESIAN_POINT ( 'NONE',  ( 0.0000000000000000000, 0.0000000000000000000, 0.0000000000000000000 ) ) ;
#189 = DIRECTION ( 'NONE',  ( 0.0000000000000000000, 0.0000000000000000000, 1.000000000000000000 ) ) ;
#190 = CARTESIAN_POINT ( 'NONE',  ( 0.0000000000000000000, 0.0000000000000000000, 0.0000000000000000000 ) ) ;
#191 = CARTESIAN_POINT ( 'NONE',  ( 8.500000000000000000, 1.040949779275250100E-015, 465.0000000000000000 ) ) ;
#192 = APPLICATION_PROTOCOL_DEFINITION ( 'draft international standard', 'automotive_design', 1998, #194 ) ;
#193 = DIRECTION ( 'NONE',  ( 1.000000000000000000, 0.0000000000000000000, 0.0000000000000000000 ) ) ;
#194 = APPLICATION_CONTEXT ( 'automotive_design' ) ;
#195 = PRODUCT_CONTEXT ( 'NONE', #198, 'mechanical' ) ;
#196 = APPLICATION_PROTOCOL_DEFINITION ( 'draft international standard', 'automotive_design', 1998, #198 ) ;
#197 =( NAMED_UNIT ( * ) SI_UNIT ( $, .STERADIAN. ) SOLID_ANGLE_UNIT ( ) );
#198 = APPLICATION_CONTEXT ( 'automotive_design' ) ;
#199 =( NAMED_UNIT ( * ) PLANE_ANGLE_UNIT ( ) SI_UNIT ( $, .RADIAN. ) );
#200 = CARTESIAN_POINT ( 'NONE',  ( -8.500000000000000000, 0.0000000000000000000, 465.0000000000000000 ) ) ;
#201 = DIRECTION ( 'NONE',  ( 1.000000000000000000, 0.0000000000000000000, 0.0000000000000000000 ) ) ;
#202 = DIRECTION ( 'NONE',  ( 0.0000000000000000000, 0.0000000000000000000, 1.000000000000000000 ) ) ;
#203 = CARTESIAN_POINT ( 'NONE',  ( 0.0000000000000000000, 0.0000000000000000000, 0.0000000000000000000 ) ) ;
#204 = CARTESIAN_POINT ( 'NONE',  ( -8.500000000000000000, 0.0000000000000000000, 0.0000000000000000000 ) ) ;
#205 =( NAMED_UNIT ( * ) SI_UNIT ( $, .STERADIAN. ) SOLID_ANGLE_UNIT ( ) );
#206 =( NAMED_UNIT ( * ) PLANE_ANGLE_UNIT ( ) SI_UNIT ( $, .RADIAN. ) );
#207 =( LENGTH_UNIT ( ) NAMED_UNIT ( * ) SI_UNIT ( .MILLI., .METRE. ) );
#208 = SURFACE_STYLE_USAGE ( .BOTH. , #209 ) ;
#209 = SURFACE_SIDE_STYLE ('',( #46 ) ) ;
#210 = CARTESIAN_POINT ( 'NONE',  ( -8.500000000000000000, 0.0000000000000000000, 465.0000000000000000 ) ) ;
#211 = FILL_AREA_STYLE ('',( #212 ) ) ;
#212 = FILL_AREA_STYLE_COLOUR ( '', #47 ) ;
#213 =( NAMED_UNIT ( * ) SI_UNIT ( $, .STERADIAN. ) SOLID_ANGLE_UNIT ( ) );
#214 =( NAMED_UNIT ( * ) PLANE_ANGLE_UNIT ( ) SI_UNIT ( $, .RADIAN. ) );
ENDSEC;
END-ISO-10303-21;
